Oops, an error
Loading. Please wait.

Despeinada Bass Tab

52 views 1 this week
no commentswrite comment
1 2 3 4 5
3 more votes to show rating
add to favorites
launch autoscroll
font size
0
reset
guitar tuner
×
Best way to learn
"Despeinada"
Autoscroll
slow
fast
+/-
esc
set tempo
stop
INTRO
    X2       X2
G|-------|-------|
D|-------|---3-7-|  X2
A|---0-4-|-5-----|
E|-1-----|-------|

G|-------|-------|
D|-------|---2-5-|
A|---5-8-|-3-----|
E|-6-----|-------|
DESPEINADA
     X4      X2
G|-------|-------|
D|-------|---3-7-|
A|---0-4-|-5-----|
E|-1-----|-------|

DESPEINADA
     X2      X2
G|-------|-------|
D|-------|---3-7-|
A|---0-4-|-5-----|
E|-1-----|-------|
TU TIENES UNA CARITA
    X2       X2
G|-------|-------|
D|-------|---3-7-|
A|---0-4-|-5-----|
E|-1-----|-------|
    X2      X2
G|-------|-------|
D|-------|---2-5-|
A|---5-8-|-3-----|
E|-6-----|-------|

TU TIENES UNA SONRISA
    X2       X2
G|-------|-------|
D|-------|---3-7-|
A|---0-4-|-5-----|
E|-1-----|-------|

G|-------|-------|
D|-------|---2-5-|
A|---5-8-|-3-----|
E|-6-----|-------|

X2       X2
G|-------|-------|
D|-------|---3-7-|
A|---0-4-|-5-----|
E|-1-----|-------|
    X2      X2
G|-------|-------|
D|-------|---2-5-|  X2
A|---5-8-|-3-----|
E|-6-----|-------|
               X9
G|----------|---|
D|----------|---|
A|-1-3-5-5-3|-3-|
E|----------|---|

X2       X2
G|-------|-------|
D|-------|---3-7-|
A|---0-4-|-5-----|
E|-1-----|-------|
    X2
G|-------|-------|---------|
D|-------|---2-5-|---------|  X2
A|---5-8-|-3-----|-3-1-----|
E|-6-----|-------|-----5-3-|


INTRO
    X2       X2
G|-------|-------|
D|-------|---3-7-|  X2
A|---0-4-|-5-----|
E|-1-----|-------|

G|-------|-------|
D|-------|---2-5-|
A|---5-8-|-3-----|
E|-6-----|-------|

DESPEINADA
     X4      X2
G|-------|-------|
D|-------|---3-7-|
A|---0-4-|-5-----|
E|-1-----|-------|

DESPEINADA
     X2      X2
G|-------|-------|
D|-------|---3-7-|
A|---0-4-|-5-----|
E|-1-----|-------|
TU TIENES UNA CARITA
    X2       X2
G|-------|-------|
D|-------|---3-7-|
A|---0-4-|-5-----|
E|-1-----|-------|
    X2      X2
G|-------|-------|
D|-------|---2-5-|
A|---5-8-|-3-----|
E|-6-----|-------|

TU TIENES UNA SONRISA
    X2       X2
G|-------|-------|
D|-------|---3-7-|
A|---0-4-|-5-----|
E|-1-----|-------|

G|-------|-------|
D|-------|---2-5-|
A|---5-8-|-3-----|
E|-6-----|-------|

X2       X2
G|-------|-------|
D|-------|---3-7-|
A|---0-4-|-5-----|
E|-1-----|-------|
    X2      X2
G|-------|-------|
D|-------|---2-5-|  X2
A|---5-8-|-3-----|
E|-6-----|-------|
               X9 Y VOY Y VOY
G|----------|---|
D|----------|---|
A|-1-3-5-5-3|-3-|
E|----------|---|
VOY A TRAER EL PELO SUELTO

G|-------|-------|     |-------|
D|---2-5-|-------|  X16|---2-5-|  Y  FIN
A|-3-----|---2-5-|     |-3-----|
E|-------|-3-----|     |-------|

ESO ES TODO
DUDAS O COMENTARIOS A MI CORREO
ATT.D.F.C.J
Suggest correction
Give kudos to tab author, rate the tab!
1 2 3 4 5
comments
print report bad tab
guest
You may want to rate the tab now too:
select rating
Wanna post a correction for this tab? Suggest correction