Oops, an error
Loading. Please wait.

La Bamba Bass

379 views 6 this week
no commentswrite comment
1 2 3 4 5
2 more votes to show rating
add to favorites
launch autoscroll
font size
0
reset
guitar tuner
×
Best way to learn
"La Bamba"
Autoscroll
slow
fast
+/-
esc
set tempo
stop
ESTA CANCION ESTA MUY FACIL SOLO TIENE DOS ACORDES *
QUE ES C Y G LES ENVIO ESTA TRANSCRIPCION DE BAJO  *
ESPERO Q LES GUSTE                                 *
****************************************************
INTRO
G|-------|-------|
D|---2-5-|-------|  X2
A|-3-----|---2-5-|
E|-------|-3-----|

G|-------|-------|
D|---2-5-|-------|  X5
A|-3-----|---2-5-|
E|-------|-3-----|
PARA BAILAR LA BAMBA
G|-------|-------|
D|---2-5-|-------|  X7
A|-3-----|---2-5-|
E|-------|-3-----|
YO NO SOY MARINERO
G|-------|-------|
D|---2-5-|-------|  X7
A|-3-----|---2-5-|
E|-------|-3-----|

PARA BAILAR LA BAMBA
G|-------|-------|
D|---2-5-|-------|  X7
A|-3-----|---2-5-|
E|-------|-3-----|

YO NO SOY MARINERO
G|-------|-------|
D|---2-5-|-------|  X7
A|-3-----|---2-5-|
E|-------|-3-----|

G|-------|-------|
D|---2-5-|-------|  X10
A|-3-----|---2-5-|
E|-------|-3-----|

G|-------|-------|
D|---2-5-|-------|  X5
A|-3-----|---2-5-|
E|-------|-3-----|

PARA BAILAR LA BAMBA
G|-------|-------|
D|---2-5-|-------|  X7
A|-3-----|---2-5-|
E|-------|-3-----|

YO NO SOY MARINERO
G|-------|-------|
D|---2-5-|-------|  X7
A|-3-----|---2-5-|
E|-------|-3-----|

PARA BAILAR LA BAMBA
G|-------|-------|
D|---2-5-|-------|  X7
A|-3-----|---2-5-|
E|-------|-3-----|

YO NO SOY MARINERO
G|-------|-------|
D|---2-5-|-------|  X7
A|-3-----|---2-5-|
E|-------|-3-----|

G|-------|-------|
D|---2-5-|-------|  X12
A|-3-----|---2-5-|
E|-------|-3-----|

G|-------|-------|
D|---2-5-|-------|
A|-3-----|-3-3-3-|
E|-------|-------|

ESO ES TODO DUDAS O COMENTARIOS A MI CORREO
DINAEL_CABRERA@
ATT.D.F.C.J
Suggest correction
Give kudos to tab author, rate the tab!
1 2 3 4 5
comments
print report bad tab
guest
You may want to rate the tab now too:
select rating
Wanna post a correction for this tab? Suggest correction