Oops, an error
Loading. Please wait.

La Colegiala Tab

592 views 1 this week
no commentswrite comment
1 2 3 4 5
3 more votes to show rating
add to favorites
launch autoscroll
font size
0
reset
how to read this tab
guitar tuner
×
Best way to learn
"La Colegiala"
Autoscroll
slow
fast
+/-
esc
set tempo
stop
La Colegiala - Sonora Dinamita

e-10-10-10---------------------------------------------------------
b-11-11-11-11--13-13-13--16--15-15-15-11--13-13-13--16--15-15-15-11
g----------12--14-14-14-------------------14-14-14-----------------
d------------------------------------------------------------------
a------------------------------------------------------------------
e------------------------------------------------------------------

e----------------------------------
b--13-13-13--16--------------------
g--14-14-14-------15--14--12-------
d----------------------------------
a----------------------------------
e----------------------------------

SE BUSCA CANTANTE PARA GRUPO DE CUMBIA
EL AKORDE
AREGNTINA
espero q les sirva el puteo
Suggest correction
Give kudos to tab author, rate the tab!
1 2 3 4 5
comments
print report bad tab
guest
You may want to rate the tab now too:
select rating
Wanna post a correction for this tab? Suggest correction