Oops, an error
Loading. Please wait.

La Cumbia Del Sida Bass Tab

68 views 1 this week
no commentswrite comment
1 2 3 4 5
3 more votes to show rating
add to favorites
launch autoscroll
font size
0
reset
guitar tuner
Autoscroll
slow
fast
+/-
esc
set tempo
stop
Help us to improve Ultimate-Guitar.com Take our survey!
×
INTRO
    A#
G|------|
D|--0-3-|
A|-1---1|
E|------|
   F     A#
G|-----------|
D|--------0-3|  X4
A|--0-3--1---|
E|-1---------|

G|---------------------|
D|-------------0-3--0-3|  X2
A|--0-3--0-3--1----1---|
E|-1----1--------------|

G|-----------|     G|------|
D|--------0-3|  X4 D|--0-3-|
A|--0-3--1---|     A|-1---1|
E|-1---------|     E|------|

QUE SE CUIDEN LAS MUJERES..
G|---------------------|
D|-------------0-3--0-3|  X2
A|--0-3--0-3--1----1---|
E|-1----1--------------|

ES LA NUEVA ENFEREMEDAD..
G|-----------|
D|--------0-3|  X4
A|--0-3--1---|
E|-1---------|

QUE SE CUIDEN LAS MUJERES..
G|---------------------|
D|-------------0-3--0-3|  X2
A|--0-3--0-3--1----1---|
E|-1----1--------------|

EL SIDA, EL SIDA, EL SIDA..
G|-----------|
D|--------0-3|  X12
A|--0-3--1---|
E|-1---------|

G|-----------|
D|--------0-3|  X4
A|--0-3--1---|
E|-1---------|

G|------|
D|--0-3-|  X7
A|-1----|
E|------|
SE RE PITE TODO Y EL FINAL ES ESTO

G|-----------|     |-------|
D|--------0-3|  X8 |-------|
A|--0-3--1---|     |--0-3--|
E|-1---------|     |-1----1|
LOS ACORDES DE ESTA CANCION SON DOS
Y SON A# Y F DUDAS O COMENTARIOS
AMI CORREO DINAEL_CABRERA@
ATT.D.F.C.J
Suggest correction
Give kudos to tab author, rate the tab!
1 2 3 4 5
comments
print report bad tab
guest
You may want to rate the tab now too:
select rating
Wanna post a correction for this tab? Suggest correction