Oops, an error
Loading. Please wait.

Mi Cucu Bass

version 1
version 1

Whole song

272 views 1 this week
no commentswrite comment
1 2 3 4 5
3 more votes to show rating
add to favorites
launch autoscroll
font size
0
reset
guitar tuner
×
Best way to learn
"Mi Cucu"
Autoscroll
slow
fast
+/-
esc
set tempo
stop
Espero q les guste

G--0--0-----0--0-----0--0-----0--0-----|
D-------0-2------0-2------0-2------0-2-|
A--------------------------------------|
E--------------------------------------|

G-------------------0--0-------0--0----|
D-0--0-----0--0----------0-2--------2--|
A------0-2------0-2--------------------|X n
E--------------------------------------|


estas dos barras se repiten durante toda
la cancion


La parte del rock n´ roll se toca asi

G----------------------------------|
D--------2-3-2-----------2-3-2-----|
A----2-5-------5-2---2-5-------5-2-|
E--3---------------3---------------|


G--------2-3-2---------------------|
D----2-5-------5-2-------2-3-2-----|
A--3-----------------2-5-------5-2-|
E------------------3---------------|


G--------4-5-4---------------------|
D----4-7-------7-4-----------------|
A--5-------------------------------|
E------------------3~~~------------|


FADE OUT

y ya saben si tienen dudas, comentarios, anecdotas,
chistes o lo q sea a mi mail jcd_007@
visiten 

si van a usar esta tab para algun lugar avisenme
no sean mala onda y si buscan un 
guitarrista ando en busca de banda =)
Suggest correction
Give kudos to tab author, rate the tab!
1 2 3 4 5
comments
print report bad tab
guest
You may want to rate the tab now too:
select rating
Wanna post a correction for this tab? Suggest correction