Oops, an error
Loading. Please wait.

Mi Cucu Bass Tab

version 2
version 2

Whole song

62 views 3 this week
no commentswrite comment
1 2 3 4 5
3 more votes to show rating
add to favorites
launch autoscroll
font size
0
reset
guitar tuner
Autoscroll
slow
fast
+/-
esc
set tempo
stop
Help us to improve Ultimate-Guitar.com Take our survey!
×
INTRO
     X3
G---------|
D-5-5-----|
A-----5-7-|
E---------|
   G  X6     D   X2
G---------|---------|
D-5-5-----|---------|
A-----5-7-|-5-5-----|
E---------|-----5-7-|

LA SEGUNDA BARRA ES TODO LO QUE LLEVA
LA CANCION TIENE DOS ACORDES
QUE SON DY G EN LA PARTE DEL
ROCK N` ROLL LLEVA UNA C


ESTA ES LA PARTE DEL ROCK N`ROLL

G----------------------------------|
D--------2-3-2-----------2-3-2-----|
A----2-5-------5-2---2-5-------5-2-|
E--3---------------3---------------|


G--------2-3-2---------------------|
D----2-5-------5-2-------2-3-2-----|
A--3-----------------2-5-------5-2-|
E------------------3---------------|


G--------4-5-4---------------------|
D----4-7-------7-4-----------------|
A--5----------------5--------------|
E----------------------------------|

ESO ES TODO
DUDAS O COMENTARIOS AMI CORREO
ATT.D.F.C.J
Suggest correction
Give kudos to tab author, rate the tab!
1 2 3 4 5
comments
print report bad tab
guest
You may want to rate the tab now too:
select rating
Wanna post a correction for this tab? Suggest correction