Oops, an error
Loading. Please wait.

Mi Pichichi Bass Tab

20 views 3 this week
no commentswrite comment
1 2 3 4 5
3 more votes to show rating
add to favorites
launch autoscroll
font size
0
reset
guitar tuner
Autoscroll
slow
fast
+/-
esc
set tempo
stop
Help us to improve Ultimate-Guitar.com Take our survey!
×
INTRO
      X4        X5
G|--------|---------|-----------|
D|-5-5----|---------|-5-5-5-5-5-|   X2
A|----5-7-|-5-5-----|-----------|
E|--------|-----5-7-|-----------|
NO,NO,NO,NO PROVOQUES MI PICHICHI
                           X3              X2       X4    X3
G|-------|-----|-------|-------|-------|-------|------|-------|
D|-5-5-5-|-----|---4-7-|-------|---4-7-|-------|--2-5-|---4-7-|
A|-------|-5---|-5-----|---2-5-|-5-----|---2-5-|-3----|-5-----|
E|-------|---7-|-------|-3-----|-------|-3-----|------|-------|
SI,SI,SI,SI PROVOCO TU PICHICHI
                           X3                     X5     X3
G|-------|-----|-------|-------|-------|-----|-------|-------|-------|
D|-5-5-5-|-----|---4-7-|-------|---4-7-|-----|-------|-------|-------|
A|-------|-5---|-5-----|---2-5-|-5-----|-----|---0-4-|---2-5-|-------|
E|-------|---7-|-------|-3-----|-------|-3-2-|-1-----|-3-----|-3-3-3-|
SI,SI,SI,SI PROVOCO TU PICHICHI
                            X3
G|-------|-----|-------|-------|-------|-------|
D|-5-5-5-|-----|---4-7-|-------|---4-7-|-------|
A|-------|-5---|-5-----|---2-5-|-5-----|---2-5-|
E|-------|---7-|-------|-3-----|-------|-3-----|

INTRO
      X4        X5
G|--------|---------|-----------|
D|-5-5----|---------|-5-5-5-5-5-|   X2
A|----5-7-|-5-5-----|-----------|
E|--------|-----5-7-|-----------|
NO,NO,NO,NO PROVOQUES MI PICHICHI
                           X3              X2       X4    X3
G|-------|-----|-------|-------|-------|-------|------|-------|
D|-5-5-5-|-----|---4-7-|-------|---4-7-|-------|--2-5-|---4-7-|
A|-------|-5---|-5-----|---2-5-|-5-----|---2-5-|-3----|-5-----|
E|-------|---7-|-------|-3-----|-------|-3-----|------|-------|
SI,SI,SI,SI PROVOCO TU PICHICHI
                           X3                     X5     X3
G|-------|-----|-------|-------|-------|-----|-------|-------|-------|
D|-5-5-5-|-----|---4-7-|-------|---4-7-|-----|-------|-------|-------|
A|-------|-5---|-5-----|---2-5-|-5-----|-----|---0-4-|---2-5-|-------|
E|-------|---7-|-------|-3-----|-------|-3-2-|-1-----|-3-----|-3-3-3-|
SI,SI,SI,SI PROVOCO TU PICHICHI
                            X3
G|-------|-----|-------|-------|-------|-------|
D|-5-5-5-|-----|---4-7-|-------|---4-7-|-------|
A|-------|-5---|-5-----|---2-5-|-5-----|---2-5-|
E|-------|---7-|-------|-3-----|-------|-3-----|

INTRO
      X4        X5
G|--------|---------|-----------|
D|-5-5----|---------|-5-5-5-5-5-|   X2
A|----5-7-|-5-5-----|-----------|
E|--------|-----5-7-|-----------|

G|-------|---4-7-|       |-----------|
D|---4-7-|-6-----|X12    |-4-7-------|
A|-5-----|-------|       |-----5-5-5-|
E|-------|-------|       |-----------|

ESO ES TODO
DUDAS O COMENTARIOS AMI CORREO
ATT.D.F.C.J
Suggest correction
Give kudos to tab author, rate the tab!
1 2 3 4 5
comments
print report bad tab
guest
You may want to rate the tab now too:
select rating
Wanna post a correction for this tab? Suggest correction