Oops, an error
Loading. Please wait.

Mil Horas Bass

594 views 1 this week
1 commentread comment
1 2 3 4 5
2 more votes to show rating
add to favorites
×
Save as Personal and add changes to this tab that will be seen only by you. Learn more ›
×
You can save this tab as Personal to edit and correct it or add notes. All changes will be seen only by you. Learn more »
save as personal
new!
launch autoscroll
font size
0
reset
guitar tuner
Autoscroll
slow
fast
+/-
esc
set tempo
stop
INTRO
    X3            X2
G|-------|-------------------------------|
D|-------|-------------------------------|
A|---2-6-|----------4-6-7-7-6--1-2-4-4-2-|
E|-4-----|4-6-7-6-4----------------------|
     X2      X2      X2
G|-------|-------|-------|-------|---------|
D|-------|-------|---6-9-|---5-8-|---------|   X2
A|---2-6-|---1-4-|-7-----|-6-----|-6-4-2---|
E|-4-----|-2-----|-------|-------|-------6-|
LA OTRA NOCHE TE ESPERE
     X2       X2    X2
G|-------|-------|-------|-------|--------|
D|-------|---2-6-|---5-8-|---6-9-|---8-11-|
A|---2-6-|-4-----|-6-----|-7-----|-9------|
E|-4-----|-------|-------|-------|--------|

Y CUANDO LLEGASTE
     X2       X2    X2
G|-------|-------|-------|--------|--------|
D|-------|---2-6-|---5-8-|--------|---5-8--|
A|---2-6-|-4-----|-6-----|---2-6--|-6------|
E|-4-----|-------|-------|-4------|--------|
HACE FRIO ESTOY LEJOS
                     X2
G|-------|-------|--------|
D|---2-6-|---5-8-|--------|  X3
A|-4-----|-6-----|---2-6--|
E|-------|-------|-4------|
TENGO UN COHETE EN EL PANTALON
G|-------|--------|
D|---2-6-|--------|  X4
A|-4-----|---2-6--|
E|-------|-4------|

G|-------|-------|
D|---2-6-|---5-8-|
A|-4-----|-6-----|
E|-------|-------|

LA OTRA NOCHE TE ESPERE
     X2       X2    X2
G|-------|-------|-------|-------|--------|
D|-------|---2-6-|---5-8-|---6-9-|---8-11-|
A|---2-6-|-4-----|-6-----|-7-----|-9------|
E|-4-----|-------|-------|-------|--------|

Y CUANDO LLEGASTE
     X2       X2    X2
G|-------|-------|-------|--------|--------|
D|-------|---2-6-|---5-8-|--------|--------|
A|---2-6-|-4-----|-6-----|---2-6--|-6-4-2--|
E|-4-----|-------|-------|-4------|--------|
    X2
G|-------|-------|-------|
D|-------|---2-6-|---5-8-|   X2
A|---2-6-|-4-----|-6-----|
E|-4-----|-------|-------|


   X4            X2
G|-------|-------------------------------|
D|-------|-------------------------------|
A|---2-6-|----------4-6-7-7-6--1-2-4-4-2-|
E|-4-----|4-6-7-6-4----------------------|

LA OTRA NOCHE TE ESPERE
     X2       X2    X2
G|-------|-------|-------|-------|--------|
D|-------|---2-6-|---5-8-|---6-9-|---8-11-|
A|---2-6-|-4-----|-6-----|-7-----|-9------|
E|-4-----|-------|-------|-------|--------|

Y CUANDO LLEGASTE
     X2       X2    X2
G|-------|-------|-------|--------|--------|
D|-------|---2-6-|---5-8-|--------|---5-8--|
A|---2-6-|-4-----|-6-----|---2-6--|-6------|
E|-4-----|-------|-------|-4------|--------|

EN EL CIRCO VOZ YA SOS
                     X2
G|-------|-------|--------|
D|---2-6-|---5-8-|--------|  X3
A|-4-----|-6-----|---2-6--|
E|-------|-------|-4------|
SI TENGO UN CORTE EN EL PANTALON
G|-------|--------|
D|---2-6-|--------|  X4
A|-4-----|---2-6--|
E|-------|-4------|

G|-------|-------|
D|---2-6-|---5-8-|
A|-4-----|-6-----|
E|-------|-------|

LA OTRA NOCHE TE ESPERE
     X2       X2    X2
G|-------|-------|-------|-------|--------|
D|-------|---2-6-|---5-8-|---6-9-|---8-11-|
A|---2-6-|-4-----|-6-----|-7-----|-9------|
E|-4-----|-------|-------|-------|--------|

Y CUANDO LLEGASTE
     X2       X2    X2
G|-------|-------|-------|--------|--------|
D|-------|---2-6-|---5-8-|--------|--------|
A|---2-6-|-4-----|-6-----|---2-6--|-6-4-2--|
E|-4-----|-------|-------|-4------|--------|

  X2
G|-------|-------|-------|        |-----|
D|-------|---2-6-|---5-8-|   X4   |-----|
A|---2-6-|-4-----|-6-----|        |-----|
E|-4-----|-------|-------|        |-4-4-|

ESO ES TODO ESPERO QUE LES GUSTE
DUDAS O COMENTARIOS A MI CORREO
ATT.D.F.C.J
Suggest correction
Give kudos to tab author, rate the tab!
1 2 3 4 5
comments
print report bad tab
1 comment total.
0 reply
david.sanchez.1 10 Dec 16, 2015 08:41 AM

Muy bien, pero veo que la tonalidad esta mas baja, por ejemplo la primerq nota es G (sol) no G# (Sol sostenido)

guest
Wanna post a correction for this tab? Suggest correction