Oops, an error
Loading. Please wait.

Que Bello Bass

746 views 21 this week
no commentswrite comment
1 2 3 4 5
3 more votes to show rating
add to favorites
×
Save as Personal and add changes to this tab that will be seen only by you. Learn more ›
×
You can save this tab as Personal to edit and correct it or add notes. All changes will be seen only by you. Learn more »
save as personal
new!
launch autoscroll
font size
0
reset
guitar tuner
Autoscroll
slow
fast
+/-
esc
set tempo
stop
La Sonora Margarita
Que Bello

Intro
G.---------
D.----4-7--
A.--5------  x 3
E.---------

G.-----------------------------------------------------------------
D.----4-7-------11-----9-12----4-7-----9-12-------9----------------
A.--5------9-12-----10-------5------10-------7-10----0-4-7--0-4-7--
E.-----------------------------------------------------------------

G.--------------------------------
D.-----9-12-----------4-7----4-7--
A.--10-------0-4-7--5------5------  x  2
E.--------------------------------

Verso
Porque me miras así...
G.------------------------------------------------------------------
D.----4-7-------11-----9-12-----9-12-----9-12----4-7----4-7----4-7--
A.--5------9-12-----10-------10-------10-------0------5------5------
E.------------------------------------------------------------------

recuerda bien este cuerpo...
G.-------------------------------------------------------------------
D.----4-7-------11-----9-12-----9-12-----9-12-------9----------------
A.--5------9-12-----10-------10-------10-------7-10----0-4-7--0-4-7--
E.-------------------------------------------------------------------

Ya no te mojes los labios...
G.------------------------------------------------------------------
D.----4-7-------11-----9-12-----9-12-----9-12----4-7----4-7----4-7--
A.--5------9-12-----10-------10-------10-------0------5------5------
E.------------------------------------------------------------------

eres tan bello y sensual...
G.-------------------------------------------------------------------
D.----4-7-------11-----9-12-----9-12-----9-12-------9----------------
A.--5------9-12-----10-------10-------10-------7-10----0-4-7--0-4-7--
E.-------------------------------------------------------------------

Coro
Y yo que te deseo a morir...
G.------------------------------------------------------------
D.-----9-12-----------4-7----4-7-------9------9------4-----4--
A.--10-------0-4-7--5------5------7-10---7-10----2-5---2-5----
E.------------------------------------------------------------

el orgullo puede esperar...
G.-------------------------------------------------------
D.-----9-12-----------4-7----4-7-------9------9-------9--
A.--10-------0-4-7--5------5------7-10---7-10----7-10----
E.-------------------------------------------------------

donde sea y tómame...
G.-------------------------------------
D.-------9-----------------------------
A.--7-10-----4-7----4-7----2-5----4-7--
E.---------5------5------3------5------

Que bello cuando me amas así...
G.-------------------------------
D.----4-7-------------4-------4--
A.--5--------4-7--2-5----2-5-----
E.---------5---------------------

Y muerdes cada parte de mi...
G.--------------------------------
D.----4-7-------9-----------------
A.--5------7-10------4-7----4-7---
E.-----------------5------5-------

que bellos son tus celos de hombre...
G.-------------------------------
D.----4-7-------------4-------4--
A.--5--------4-7--2-5----2-5-----
E.---------5---------------------

que sientes cada vez que me voy...
G.--------------------------------
D.----4-7-------9-----------------
A.--5------7-10------4-7----4-7---
E.-----------------5------5-------

Puente

G.--------------------------------------------------------------------
D.----4-7----4-7------4------4-----9-12-----9-12-----11-14-----11-14--
A.--5------5------2-5----2-5----10-------10-------12--------12--------
E.--------------------------------------------------------------------

Intro

Verso

Coro

Puente

Saludos A todos
Especialmente para nayeli y mis colaboradores del Drink Team San Nicolas.
Suggest correction
Give kudos to tab author, rate the tab!
1 2 3 4 5
comments
print report bad tab
guest
Wanna post a correction for this tab? Suggest correction