Oops, an error
Loading. Please wait.

Donde Esta Mi Vida Chords

20 views 1 this week
no commentswrite comment
1 2 3 4 5
3 more votes to show rating
add to favorites
launch autoscroll
font size
0
reset
transpose
0
reset
simplify chords
display chords
guitar tuner
Autoscroll
slow
fast
+/-
esc
set tempo
stop
Help us to improve Ultimate-Guitar.com Take our survey!
×
            C   Em
Hoy vuelvo a ser,
            C    Em
lluvia en el mar,
          C           Bm    A    G
caigo otra vez en la inmensidad.

           C  Em
Hoy voy a huír,
         C  Em
a ese lugar,
        C          Bm      Am
donde cubrirme de tierra y paz.

F#5  G5
Uhhh Uhhh
          A5       G5       B5        A5
¿Dónde está....... mi.......vida...?

(C,Em) x2

            C    Em
Hoy vuelvo a ser,
            C    Em
viento en el mar,
         C             Bm    Am  G
viajo sin ver, donde iré a parar.
         C           Em
Voy a volver a convertirme
              C   Em
en polvo de estrellas
        C            Bm   Am
voy a viajar dentro de su luz...

F#5  G5
Uhhh Uhhh
          A5       G5       B5                A5
¿Dónde está....... mi.......vida...?


(C,Em) x2

         Am
No tengo miedo a no despertar!!

No tengo miedo a no despertar!!


|---------------------|----------------------|
|---------------------|----------------------|
|---------------------|----------------------|
|---------------------|----------------------|
|-10-----12----14-----|-10----12----14-------|
|---------------------|----------------------|

|---------------------|----------------------|
|---------------------|----------------------|
|---------------------|----------------------|
|---------------------|----------------------|
|-10-----12----14-----|-10----12---14--------|
|---------------------|----------------------|


|---------------------|----------------------|
|---------------------|----------------------|
|---------------------|----------------------|
|-------10-----12-----|--------10-----12-----|
|-10------------------|10--------------------|
|---------------------|----------------------|

|---------------------|----------------------|
|---------------------|----------------------|
|---------------------|-11--12--------14-----|
|-------10-----14-----|----------------------|
|-10------------------|----------------------|
|---------------------|----------------------|


|---------------------|----------------------|
|---------------------|----------------------|
|---------------------|----------------------|
|-14---11    12-------|--14---11----12-------|
|---------------------|----------------------|
|---------------------|----------------------|


|---------------------|----------------------|
|---------------------|----------------------|
|-11   12    14-------|-11----12------16-----|
|---------------------|----------------------|
|---------------------|----------------------|
|---------------------|----------------------|


(E  C) X2
Suggest correction
Give kudos to tab author, rate the tab!
1 2 3 4 5
comments
print report bad tab
guest
You may want to rate the tab now too:
select rating
Wanna post a correction for this tab? Suggest correction