Oops, an error
Loading. Please wait.

Rata Sucia Chords

11 views 1 this week
no commentswrite comment
1 2 3 4 5
3 more votes to show rating
add to favorites
launch autoscroll
font size
0
reset
transpose
0
reset
simplify chords
display chords
guitar tuner
Autoscroll
slow
fast
+/-
esc
set tempo
stop
Help us to improve Ultimate-Guitar.com Take our survey!
×
Intro:

         A5                           A5
e/--------------------------/-----------------------------/
b/--------------------------/-----------------------------/
g/--------------------------/-----------------------------/
d/-5-5-6-7--7-7--7--7-7--7-7/-2-5-5-6-7--7-7--7--7-7--7-7-/
a/-5-5-6-7--7-7--7--9-7--7-7/-2-5-5-6-7--7-7--7--9-7--7-7-/
E/-3-3-4-5--5-5--5--5-5--5-5/-0-3-3-4-5--5-5--5--5-5--5-5-/

         D5              E5
e/----------------/-----------------
b/----------------/-----------------
g/-5-5-6-7---7-7--/-7-7-8-9--9--9-9--
d/-5-5-6-7---9-7--/-7-7-8-9--11-9-11-(base de rock)
a/-3-3-4-5---5-5--/-5-5-6-7--7--7-7--
E/----------------/------------------

A5-D5-E5 (base de rock)

     A5
Me dijiste aquel día que no querías mas
     D5
Me usaste como a otro de los tuyos para ganar
     E5             D5        A5
Me dejaste ahí tirado y sin un mango

Me dijiste que me amabas y mucho más
Te colgabas de mis brazos para poder zafar
Me dejaste ahí tirado y sin un mango

D5                           A5
Sos una rata sucia que no servís
D5                            A5
Sos una rata sucia que come de mí
E5          D5         A5
Sos una rata que debe morir


Y ahora siento que me levanta este rocanrol
No me importa nada nada nada que sea de vos
Ahora ya no tenes a quien joder
Ahora ya no tenes a quien joder.

D5                           A5
Sos una rata sucia que no servís
D5                            A5
Sos una rata sucia que come de mí
E5          D5         A5
Sos una rata que debe morir

D5-E5-A5
Suggest correction
Give kudos to tab author, rate the tab!
1 2 3 4 5
comments
print report bad tab
guest
You may want to rate the tab now too:
select rating
Wanna post a correction for this tab? Suggest correction