Oops, an error
Loading. Please wait.

Nuevo Amanecer Tab

52 views 1 this week
no commentswrite comment
1 2 3 4 5
3 more votes to show rating
add to favorites
launch autoscroll
font size
0
reset
how to read this tab
guitar tuner
×
Best way to learn
"Nuevo Amanecer"
Autoscroll
slow
fast
+/-
esc
set tempo
stop
Esta canción, aunque no me gusta y desespera, la saque
hace ya bastante tiempo pero recién me registro en lacuerda.

He pasado lo q se toca en el órgano a la guitarra


Riff 1
e--------------------------------------------
 --------------------------------------------
 --------------------------------------------
 -----------------4--------------------------
 -----4-7-4-7-4-7---7-------4-7-7-4----------
 -5-5-------------------5-5---------7-5-7-2--


Riff 2

e-5-5-5-2-----2------------
 ---------5-2---5-----x3---
 --------------------------
 --------------------------
 --------------------------
 --------------------------

e----------------
 -2-5-2----------
 -------4-2-4----
 -------------4--
 ----------------
 ----------------

Riff 3

e------------------------------------
 ------------------------------------
 -----------2-------------------2----
 -4-4-4-4-4---4-2---2-4-4-4-4-4---4--  x2
 -----------------4------------------
 ------------------------------------

A                                                      F#m
 y xq no podras rectificar siempre hay  un nuevo amancer
A                                                       F#m
 mientras dios te da vida y salud aprovecha para ser feliz
A                                                       F#m
 mientras dios te da vida y salud aprovecha para dar amor

[Riff 2]

A
 brinda una sonrisa, se mas cariñoso, ponle alegria
                                         F#m
 si tu sabes dar amor entonces seras feliz
A
 domina tu orgullo, no seas egoista, se mas amigable
                                              F#m
 si tu sabes dar amor, un nuevo amanecer tendras


[Riff 1] x2

[Riff 2]

[Riff 3]


A                                                      F#m
 y xq no podras rectificar siempre hay  un nuevo amancer
A                                                       F#m
 mientras dios te da vida y salud aprovecha para ser feliz
A                                                       F#m
 mientras dios te da vida y salud aprovecha para dar amor

[Riff 2]

A
 brinda una sonrisa, se mas cariñoso, ponle alegria
                                         F#m
 si tu sabes dar amor entonces seras feliz
A
 domina tu orgullo, no seas egoista, se mas amigable
                                              F#m
 si tu sabes dar amor, un nuevo amanecer tendras


[Riff 3]


cualquier consulta: jdrb22@


juandieguito
Suggest correction
Give kudos to tab author, rate the tab!
1 2 3 4 5
comments
print report bad tab
guest
You may want to rate the tab now too:
select rating
Wanna post a correction for this tab? Suggest correction