Oops, an error
Loading. Please wait.

Azul Inka Tab

by La Tona
19 views 1 this week
no commentswrite comment
1 2 3 4 5
3 more votes to show rating
add to favorites
×
Save as Personal and add changes to this tab that will be seen only by you. Learn more ›
×
You can save this tab as Personal to edit and correct it or add notes. All changes will be seen only by you. Learn more »
save as personal
new!
launch autoscroll
font size
0
reset
how to read this tab
guitar tuner
Autoscroll
slow
fast
+/-
esc
set tempo
stop
INTRO
     D
     pm     pm  pm    pm pm     pm  pm
E|--2--x-x-2--22--2222--2--x-x-2--22--2222--|
B|--3--x-x-3--33--3333--3--x-x-3--33--3333--|
G|--2--x-x-2--22--2222--2--x-x-2--22--2222--|
D|--0------0--00--0000--0------0--00--0000--|
A|------------------------------------------|
E|------------------------------------------|

1era Guitarra x3
    D           C           G           D
E|--2--2--2222--0--0--0000--3--3--3333--2--2--2222---|
B|--3--3--3333--1--1--1111--3--3--3333--3--3--3333---|
G|--2--2--2222--0--0--0000--0--0--0000--0--0--2222---|
D|--0--0--0000--2--2--2222--0--0--0000--0--0--0000---|
A|--0--0--0000--3--3--3333--2--2--2222--0--0--0000---|
E|---------------------------------------------------|

2da Guitarra x3
E|-----------------------------------------2---------|
B|-------3------3333-22------3333-22--------3--3-3-3---|
G|-----2-----------------------------0--2-----2-2----|
D|--O------------------------------------------------|
A|---------------------------------------------------|
E|---------------------------------------------------|

Coro x2
   D        C        G               D
E|-2-2-2222-0-0-0110-22-22-3-2-02-02-22-22-3-2-02-02-|
B|-3-3-3333-1-1-1111-33-33-3-3-33-33-33-33-3-3-33-33-|
G|-2-2-2222-0-0-0000-00-00-0-0-00-00-22-22-2-2-22-22-|
D|-0-0-0000-2-2-2222-00-00-0-0-00-00-00-00-0-0-00-00-|
A|-0-0-0000-3-3-3333-00-00-0-0-00-00-00-00-0-0-00-00-|
E|---------------------------------------------------|

    C
E|--0--|
B|--1--|
G|--0--|
D|-----|
A|-----|
E|-----|

1era Guitarra x2
    D           C           G           D
E|--2--2--2222--0--0--0000--3--3--3333--2--2--2222---|
B|--3--3--3333--1--1--1111--3--3--3333--3--3--3333---|
G|--2--2--2222--0--0--0000--0--0--0000--0--0--2222---|
D|--0--0--0000--2--2--2222--0--0--0000--0--0--0000---|
A|--0--0--0000--3--3--3333--2--2--2222--0--0--0000---|
E|---------------------------------------------------|
2da Guitarra x2
E|-----------------------------------------2---------|
B|-------3------3333-22------3333-22--------3--3-3-3---|
G|-----2-----------------------------0--2-----2-2----|
D|--O------------------------------------------------|
A|---------------------------------------------------|
E|---------------------------------------------------|

Coro x2
   D        C        G               D
E|-2-2-2222-0-0-0000-22-22-3-2-02-02-22-22-3-2-02-02-|
B|-3-3-3333-1-1-1111-33-33-3-3-33-33-33-33-3-3-33-33-|
G|-2-2-2222-0-0-0000-00-00-0-0-00-00-22-22-2-2-22-22-|
D|-0-0-0000-2-2-2222-00-00-0-0-00-00-00-00-0-0-00-00-|
A|-0-0-0000-3-3-3333-00-00-0-0-00-00-00-00-0-0-00-00-|
E|---------------------------------------------------|

    C
E|--0--|
B|--1--|
G|--0--|
D|-----|
A|-----|
E|-----|

OUTRO
1da Guitarra x2
    D           C           G           D
E|--2-----------0-----------3-----------2-2--2-------|
B|--3-----------1-----------3-----------3--3--3------|
G|--2-----------0-----------0-----------2------------|
D|--0-----------2-----------0-----------0------------|
A|---------------------------------------------------|
E|---------------------------------------------------|

2da Guitarra x2
E|-----------------------------------------2---------|
B|-------3------3333-22------3333-22--------3--3-3-3---|
G|-----2-----------------------------0--2-----2-2----|
D|--O------------------------------------------------|
A|---------------------------------------------------|
E|---------------------------------------------------|

Coro x2
   D        C        G               D
E|-2-2-2222-0-0-0000-22-22-3-2-02-02-22-22-3-2-02-02-|
B|-3-3-3333-1-1-1111-33-33-3-3-33-33-33-33-3-3-33-33-|
G|-2-2-2222-0-0-0000-00-00-0-0-00-00-22-22-2-2-22-22-|
D|-0-0-0000-2-2-2222-00-00-0-0-00-00-00-00-0-0-00-00-|
A|-0-0-0000-3-3-3333-00-00-0-0-00-00-00-00-0-0-00-00-|
E|---------------------------------------------------|

Que onda mucha espero que les guste, más de un error  
a de haber pero suena bien así, va dedicado a toda la 
mara que apoya el rock guatemalteco, si alguién tiene 
partituras nuevas de rock chapín comunicarse a 
vicuev2000@ podemos intercambiar.
Suggest correction
Give kudos to tab author, rate the tab!
1 2 3 4 5
comments
print report bad tab
guest
Wanna post a correction for this tab? Suggest correction