Oops, an error
Loading. Please wait.

El Mito De Jade Tab

version 2
version 2

Whole song

by La Tona
23 views 1 this week
no commentswrite comment
1 2 3 4 5
3 more votes to show rating
add to favorites
launch autoscroll
font size
0
reset
how to read this tab
guitar tuner
×
Best way to learn
"El Mito De Jade"
Autoscroll
slow
fast
+/-
esc
set tempo
stop
e|-----0---2-3-2-0----0---2-3-2-0-----7-5-3--2-0--0-----0----|
B|---0---0----------0---0----------0--7-5-3--2-0----0-0------|
G|-----------------------------------------------------------|
D|----------------------------------------5--4---------------|
A|-----------------------------------------------------------|
E|-----0--------------0-----------------5------0-------------|

e|-----0---2-3-2-0----0---2-3-2-0-----7-5-3--2-0--0-----0----|
B|---0---0----------0---0----------0--7-5-3--2-0----0-0-0----|
G|-----------------------------------------------------------|
D|----------------------------------------5--4---------------|
A|-----------------------------------------------------------|
E|-----0--------------0---------------7-5------0--------0----|

e|---7--5-3--0-5--5-3--0-7--5-3--0-5--5-3--0-7--5-3--0-5--5-3|
B|---7--5-3--0-5--5-3--0-7--5-3--0-5--5-3--0-7--5-3--0-5--5-3|
G|-----------------------------------------------------------|
D|-----------------------------------------------------------|
A|-----------------------------------------------------------|
E|---7--5-3--0-5--5-3--0-7--5-3--0-5--5-3--0-7--5-3--0-5--5-3|

e|-----0---2-3-2-0---0---0-0----0---2-3-2-0---0---0-0--------|
B|---0---0---------3---0------0---0---------3---0------------|
G|-----------------------------------------------------------|
D|-----------------------------------------------------------|
A|-----------------------------------------------------------|
E|-----0------------------------0----------------------------|

Todo lo anterior se repite 2 veses
Suggest correction
Give kudos to tab author, rate the tab!
1 2 3 4 5
comments
print report bad tab
guest
You may want to rate the tab now too:
select rating
Wanna post a correction for this tab? Suggest correction