Oops, an error
Loading. Please wait.

Selene Tab

45 views 3 this week
no commentswrite comment
1 2 3 4 5
3 more votes to show rating
add to favorites
launch autoscroll
font size
0
reset
how to read this tab
guitar tuner
Autoscroll
slow
fast
+/-
esc
set tempo
stop
Help us to improve Ultimate-Guitar.com Take our survey!
×
bueno espero que les guste mi version

INTRO:

   G          G          D              C
6.------------3-----------------------------------------------
5.----------2-2-------------------------3---------------------
4.-0p2-0p2-0--0--------0-0--------------2---2---2----0p2-0p2--
3.----0---0---0-0----0---2-----------2--0-----0---------0---0-
2.------------3----3-----3---------3----1---------------------
1.------------3--3-------2-2-3p2-2------0---------------------

Verso:

   G          G          D             C
6.------------3-----------------------------------------------
5.----------2-2-------------------------3---------------------
4.-0p2-0p2-0--0--------0-0--------------2---2---2----0p2-0p2--
3.----0---0---0-0----0---2-----------2--0-----0---------0---0-
2.------------3----3-----3---------3----1---------------------
1.------------3--3-------2-2-3p2-2------0---------------------
             Una carta en el tocador que no dijo nada


6.  G  G          D              C
6.-----3-----------------------------------------------
5.---2-2-------------------------3---------------------
4.--0--0--------0-0--------------2---2---2----0p2-0p2--
3.-0---0-0----0---2-----------2--0-----0---------0---0-
2.-----3----3-----3---------3----1---------------------
1.-----3--3-------2-2-3p2-2------0---------------------
    La cama desecha y tu almohada mojada por las lagrimas que el


   G   G          D              C
6.-----3-----------------------------------------------
5.---2-2-------------------------3---------------------
4.--0--0--------0-0--------------2---2---2----0p2-0p2--
3.-0---0-0----0---2-----------2--0-----0---------0---0-
2.-----3----3-----3---------3----1---------------------
1.-----3--3-------2-2-3p2-2------0---------------------
  SOL dejo         LA noche anterior.......


y asi se va toda esta rola espero que les guste suerte
Suggest correction
Give kudos to tab author, rate the tab!
1 2 3 4 5
comments
print report bad tab
guest
You may want to rate the tab now too:
select rating
Wanna post a correction for this tab? Suggest correction