Oops, an error
Loading. Please wait.

1973 Milonga Mar Tab

47 views 1 this week
no commentswrite comment
1 2 3 4 5
3 more votes to show rating
add to favorites
launch autoscroll
font size
0
reset
how to read this tab
guitar tuner
×
Best way to learn
"1973 Milonga Mar"
Autoscroll
slow
fast
+/-
esc
set tempo
stop
h = hammer on
p = pull off
/ = slide
v = vibrato
b = bend (estirar)
r = release (soltar la estirada)
5 = acorde tocado como power chord


Es la versión en vivo del disco frente a frente...
cualquier cosa escriban.

INTRO:
======

E|-----------------------------------------------------------|
B|---------2h3-2---------------------------------------------|
G|-1-2-4v-------4-1h2-1------------------------------------2-|
D|----------------------2-4---2p1h2p1h2p1h2p1h2p1h2p1h2p1--2-|
A|---------------------------------------------------------0-|
E|-----------------------------------------------------------|

B      A       B        A
No dejes que el frío mar ,
B     A         B
lastime restos de libertad.

RIFF 1:
=======
E|----------------------|
B|----------------------|
G|--2-4-4v------2-4-4br-|
D|-4-----------4--------|
A|----------------------|
E|----------------------|

B5        A5         B5     A5
Yo sé que el viento recitará
B5       A5        B5        A5
un himno al borde de la maldad.

INTERMEDIO: D-D-C-D--D-F-E-D-D-C-D---C-B
===========

ESTRIBILLO:
===========
E5                  F#5
Iluminar el fondo de nuestro mar
          A5          E5
donde descansa toda la verdad.

D|-------------|
A|-7-6-5-4-3-2-|
E|-------------|

E5                     F#5
Respiraré diez años de sangre y sal
             A5          E5
sobre los restos del joven rosal.

E|---------------------------------|
B|--8-10-10br-8--------------------|
G|-9------------9---------9-10-11--|


Levantaré mil anclas de gris metal,
Montevideo quiere respirar.

D|-4------------------------------------------------------|
A|-2--------2-----3-----2-------1--3-------------0--2/3-2-|
E|--------------------------------------------------------|
   Escucharé gaviotas que gritarán versos de un pueblo

D|--------2------------|
A|--------2------------|
E|-3------0------------|
   Milonga de mar...

SOLO:
=====

E|-----------------------------------------------------|
B|-15b--15v-13h15p13-12-13-12h13p12--------------------|
G|----------------------------------14-12-11-----------|
D|-------------------------------------------14-13-13v-|
A|-----------------------------------------------------|
E|-----------------------------------------------------|

E|-------------------------------------------------|
B|-------------------------------------------------|
G|--------15---------------12b(14)--(14)r12-11-----| X2
D|-14b(16)---(16)r14-13-----------13---------------|
A|-------------------------------------------------|
E|-------------------------------------------------|

E|-19-19-17-19-17h19p17-15-17-15h17p15-14-15-14h15p14-12-14-|
B|----------------------------------------------------------|
G|----------------------------------------------------------|
D|----------------------------------------------------------|
A|----------------------------------------------------------|
E|----------------------------------------------------------|

E|-12h14p12-11-12-11h12p11-8-11-8h11p8--9----------|
B|------------------------------------12-12--------|
G|------------------------------------------12-14--|
D|-------------------------------------------------|
A|-------------------------------------------------|
E|-------------------------------------------------|

E|------------------------------------------------------------------|
B|------------------------------------------------------------------|
G|-11-------------11---11---------------------14-11-------------11\-|
D|----14-13--13-14--14---14-13----------------------14-13--13h14----|
A|----------------------------14--12h14-14/17-----------------------|
E|------------------------------------------------------------------|

                      A5
No dejes que el frío mar....
B5     A5      B5            (RIFF 1)
lastime restos, de libertad

(repite versos, intermedio, estribillo...)

FINAL:
======

D|--------------------------2|
A|------7--12-10------7\----2|
E|-7-10--10------8-10-------0|
Suggest correction
Give kudos to tab author, rate the tab!
1 2 3 4 5
comments
print report bad tab
guest
You may want to rate the tab now too:
select rating
Wanna post a correction for this tab? Suggest correction