Oops, an error
Loading. Please wait.

Ahuyentando El Miedo Chords

19 views 1 this week
no commentswrite comment
1 2 3 4 5
3 more votes to show rating
add to favorites
launch autoscroll
font size
0
reset
transpose
0
reset
display chords
guitar tuner
Autoscroll
slow
fast
+/-
esc
set tempo
stop
intro .
A Fm D E X 2

No es un invierno mas
este es un nuevo invierno
aunque creas que no esta
igual has ido yendo

todo sobre ...
1------------------------------
2------------------------------
3------------------------------
4----------------3-2-3-2-0-----  RIFF
5--3-2-3-2-0---5---------------
6-5----------------------------

ESTRIBILLO.
C
Y hoy
B
estoy
F
Ahuyentando el miedo con mi cancion

RIFF X 2
La calle sigue gris
quisiera encontrarte
cambiando de color
sin temor de marcharte

ESTRIBILLO..

la sigo oyendo hoy - TODO SOBRE RIFF X1

RIFF X2

La dejo hacer callar
es una voz de muerte
aun te puede alcanzar
no ignores esa suerte

ESTRIBILLO..

PUNTEO X4
Aclaracion del punteo..
1-----------------------------------
2-----------------------------------
3--5-2-2--7--2-2--5-2-5-4-2-4-5-4---
4-----------------------------------
5-----------------------------------
6-----------------------------------  termina con acorde A

CUALQUIER CANCION QUE NECESITEN ESCRIBANME
AGUANTE LA TRAMPA , EL GARO , BEROKAY, Y EL ALE
Suggest correction
Give kudos to tab author, rate the tab!
1 2 3 4 5
comments
print report bad tab
guest
You may want to rate the tab now too:
select rating
Wanna post a correction for this tab? Suggest correction