Oops, an error
Loading. Please wait.

Alta Mar Tab

13 views 3 this week
no commentswrite comment
1 2 3 4 5
3 more votes to show rating
add to favorites
launch autoscroll
font size
0
reset
how to read this tab
guitar tuner
×
Best way to learn
"Alta Mar"
Autoscroll
slow
fast
+/-
esc
set tempo
stop
Un tema y pico!!!!! A mi parecer esta perfecto!
Trate de poner el tiempo exacto o parecido,
jeje les dejo mi mail por alguna duda: rdre_nirvana@


* = armonico
/ = slide
h = hammer on
p = pull off
m = palm mute
^ = rasgueo hacia arriba

Intro:

e|------------------|
B|------------------|
G|------------------|
D|------------------|
A|------------------|
E|--1p0h1/2/3-------|

e|----------------------------------------------------------------------|
B|----------------------------------------------------------------------|
G|----------------------------------------------------------------------|
D|m-3----3----3-----2-----2-----2-----1----1----1-----0----0----0-------|
A|m---1----1----------1-----1-----------1----1----------1----1----------|
E|m-----3----3----3-----3-----3-----3-----3----3----3-----3----3--------|

e|----------------------------------------------------------------------|
B|----------------------------------------------------------------------|
G|----------------------------------------------------------------------|
D|m--3----3----3-----2-----2-----2-----1----1----1-----0----1p0---------|
A|m----1----1----------1-----1-----------1----1----------1------3-1-0---|
E|m-3----3----3----3-----3-----3-----3-----3----3----3-----3----------3-|


Pescador de alta mar,                         no tires hoy tus

e|------------------------------------------------------------|
B|------------------------------------------------------------|
G|------------------------------------------------------------|    x2
D|m-------------------------8-------------8-------------------|
A|m-----------------10------------10--------12----------------|
E|m---------------8----11-8-----8----11-8---------------------|

                 redes.

e|------------------------------------------------------------|
B|------------------------------------------------------------|
G|------------------------------------------------------------|
D|m-----------------------5-2p0h2-----------5-----------------|
A|m-----------------5-----------------5-------7---------------|
E|m---------------3---6-3-----------3---6-3-------------------|

                 Sigue   tu

e|------------------------------------------------------------|
B|------------------------------------------------------------|
G|------------------------------------------------------------|
D|m-----------------------5-----------------5-----------------|
A|m-----------------5-----------------5-------7---------------|
E|m---------------3---6-3-----------3---6-3-------------------|

           navegar.                            No cales tu que

e|------------------------------------------------------------|
B|------------------------------------------------------------|
G|------------------------------------------------------------|    x2
D|m-------------------------8-------------8-------------------|
A|m-----------------10------------10--------12----------------|
E|m---------------8----11-8-----8----11-8---------------------|

                 puedes.

e|------------------------------------------------------------|
B|------------------------------------------------------------|
G|------------------------------------------------------------|
D|m-----------------------5-2p0h2-----------5-----------------|
A|m-----------------5-----------------5-------7---------------|
E|m---------------3---6-3-----------3---6-3-------------------|

Flota en el mar

e|------------------------------------------------------------|
B|------------------------------------------------------------|
G|------------------------------------------------------------|
D|m-----------------------5-----------------5-----------------|
A|m-----------------5-----------------5-------7---------------|
E|m---------------3---6-3-----------3---6-3-------------------|

              mi pena.                         Flota en el mar,

e|------------------------------------------------------------|
B|------------------------------------------------------------|
G|------------------------------------------------------------|    x2
D|m-------------------------8-------------8-------------------|
A|m-----------------10------------10--------12----------------|
E|m---------------8----11-8-----8----11-8---------------------|

               perdida.

e|------------------------------------------------------------|
B|------------------------------------------------------------|
G|------------------------------------------------------------|
D|m-----------------------5-2p0h2-----------5-----------------|
A|m-----------------5-----------------5-------7---------------|
E|m---------------3---6-3-----------3---6-3-------------------|

         Meduza

e|------------------------------------------------------------|
B|------------------------------------------------------------|
G|------------------------------------------------------------|
D|m-----------------------5-----------------5-----------------|
A|m-----------------5-----------------5-------7---------------|
E|m---------------3---6-3-----------3---6-3-------------------|

           virgina.

e|------------------------------------------------------------|
B|------------------------------------------------------------|
G|------------------------------------------------------------|
D|m-------------------------8-------------8-------------------|
A|m-----------------10------------10--------12----------------|
E|m---------------8----11-8-----8----11-8---------------------|

                                Sirvele tu de guia

e|----------------------------------------------|-------------|
B|----------------------------------------------|-------------|
G|----------------------------------------------|*12----------|
D|m-------------------------8-------------8-----|*12----------|
A|m-----------------10------------10--------12--|-------------|
E|m---------------8----11-8-----8----11-8-------|-------------|

Solo luces en la noche,                solo penas nada mas

      F                G

e|--------------------------|---------------------------------|
B|--------------------------|---------------------------------|
G|--^2----------------3-----|-------------0----------------0--|
D|---^3--------------5------|------------7----------------5---|
A|----^3------------5-------|-------0-1/8----------------5----|
E|-----^1----------3--------|-----3---------------------------|

            Solo luces en la noche,       flotando en la inmensidad

e|-----------------------------------------------------------------|
B|-----------------------------------------------------------------|
G|-------------0--------0------7--5------0-----------------6h7/8/7-|
D|--55-5-5----7--------5----5/8--7------7---------------5h7--------|
A|--55-6-7-7/8--------5-------------10-8-------------5h6-----------|
E|-----------------------------------------------------------------|


e|------------------|
B|------------------|
G|------------------|
D|------------------|
A|------------------|
E|--1p0h1/2/3-------|

e|----------------------------------------------------------------------|
B|----------------------------------------------------------------------|
G|----------------------------------------------------------------------|
D|m-3----3----3-----2-----2-----2-----1----1----1-----0----0----0-------|
A|m---1----1----------1-----1-----------1----1----------1----1----------|
E|m-----3----3----3-----3-----3-----3-----3----3----3-----3----3--------|

e|----------------------------------------------------------------------|
B|----------------------------------------------------------------------|
G|----------------------------------------------------------------------|
D|m--3----3----3-----2-----2-----2-----1----1----1-----0----1p0---------|
A|m----1----1----------1-----1-----------1----1----------1------3-1-0---|
E|m-3----3----3----3-----3-----3-----3-----3----3----3-----3----------3-|


Pescador de alta mar,
no sueltes hoy tus nudos.
Sueños que habras de andar,
sirva tu fe de escudo.


Mar adentro la pena,                mas adentro, mi vida.

e|----------------------------------------------------------------------|
B|-------------------------6---------------------------------88/9878----|
G|---------------------6-7---9-8-7--------------------------7-------7---|
D|------------------5h7----------------------------------578------------|
A|---------------5h6------------------------------------5---------------|
E|---------------------------------------------------356----------------|

Tus penas llegaran

e|------------------------------------------------------------|
B|------------------------------------------------------------|
G|------------------------------------------------------------|
D|m-------------------------8-------------8-------------------|
A|m-----------------10------------10--------12----------------|
E|m---------------8----11-8-----8----11-8---------------------|

                             a mi esperanza hundida.

e|----------------------------------------------|-------------|
B|----------------------------------------------|-------------|
G|----------------------------------------------|*12----------|
D|m-------------------------8-------------8-----|*12----------|
A|m-----------------10------------10--------12--|-------------|
E|m---------------8----11-8-----8----11-8-------|-------------|

Solo luces en la noche,                solo penas nada mas

      F                G

e|--------------------------|---------------------------------|
B|--------------------------|---------------------------------|
G|--^2----------------3-----|-------------0----------------0--|
D|---^3--------------5------|------------7----------------5---|
A|----^3------------5-------|-------0-1/8----------------5----|
E|-----^1----------3--------|-----3---------------------------|

            Solo luces en la noche,       flotando en la inmensidad

e|-----------------------------------------------------------------|
B|-----------------------------------------------------------------|
G|-------------0--------0------7--5------0-----------------6h7/8/7-|
D|--55-5-5----7--------5----5/8--7------7---------------5h7--------|
A|--55-6-7-7/8--------5-------------10-8-------------5h6-----------|
E|-----------------------------------------------------------------|

Penas que en la noche, tan leves,
se dejan llevar.
Luces que en el mar se alejan,
y no vuelven mas.

     Penas que en la noche, tan leves

e|---------------------------------------|
B|---------------------------------------|
G|-------0--------------------------0----|
D|-----5-------5-----------0------5------|
A|----6-6-----8------3----5------6-6-6/--|
E|-----------6------1----3---------------|

              se dejan llevar.

e|-----------------------------------|
B|-----------------------------------|
G|--------------------------------0--|
D|--------5-----0-----0---------5----|
A|-------8-----3-----5-5---3h4/6-6-6/|
E|------6-----1-----3---3------------|

    Luces que en el mar,  se alejan                 y no vuelven mas.

e|---------------------------------------|
B|---------------------------------------|
G|-----------------------------------0---|    x2
D|-------5-------------------------5-----|
A|----8-8-----3-3--------5-5--3h4/6-6----|
E|---6-6-----1-1----1/2/3-3--------------|

A#5    F5       G5          D#5

Penas que en la noche, tan leves,

A#5    F5       G5          D#5

se dejan llevar.

A#5    F5       G5          D#5

Luces que en el mar, se alejan,

A#5    F5       G5          D#5
y no vuelven más.

A#5    F5       G5          D#5

Penas que en la noche, tan leves,

A#5    F5       G5          D#5

se dejan llevar.


Luces que en el mar, se alejan y el mar

e|---------------------------------------|
B|---------------------------------------|
G|-----------------------------------0---|
D|-------5-------------------------5-----|
A|----8-8-----3-3--------5-5--3h4/6-6----|
E|---6-6-----1-1----1/2/3-3--------------|

            no devuelve mas.

e|---------------------------------------|
B|---------------------------------------|
G|---------------------------------------|
D|-------5-----------0-3-2---------------|
A|----8-8-----3-3---1-1------------------|
E|---6-6-----1-1---3---------------------|


Es algo extensa pero vale toda la pena!!!
LARGA VIDA AL ROCK'N ROLL!! SALUTE!!!
Suggest correction
Give kudos to tab author, rate the tab!
1 2 3 4 5
comments
print report bad tab
guest
You may want to rate the tab now too:
select rating
Wanna post a correction for this tab? Suggest correction