Oops, an error
Loading. Please wait.

Arma De Doble Filo Tab

47 views 1 this week
no commentswrite comment
1 2 3 4 5
3 more votes to show rating
add to favorites
launch autoscroll
font size
0
reset
how to read this tab
guitar tuner
Autoscroll
slow
fast
+/-
esc
set tempo
stop
Help us to improve Ultimate-Guitar.com Take our survey!
×
h = hammer on
p = pull off
/ = slide
v = vibrato
b = bend (estirar)
r = release (soltar la estirada)

Les dejo la versión en vivo del disco frente a frente.
Saludos.


D-C-G

D                       C
Arma de doble filo la soledad
G                  D
cabalgando, cabalgando
D                            C
con cada madrugada que se te va
   G             D         D-C  C-A#
escapando, escapando

G*
G|----10-|        Riff 1
D|--10---|        G|-2-5-5/7-|
A|-8-----|
E|-------|

D                              C
Esa que te da frio que siempre esta
G         D
arañando, arañando
D                            C
esa vieja mentira que se asomó
G*                Riff 1
recordando, recordando

D         C      A#    A
Mal compañera de viaje...
LA soledad

1º SOLO:
========

E|-----------------------------------------------|
B|-----------------------------------------------|
G|-----------------------------------------------|
D|-----------------------------------------------| X 2
A|-3h5-3h5-3h5-5p3--3-5s7v---2---2-3-3h5-3h5-3h5-|
E|-----------------5----------3------------------|


2º SOLO:
========

   /sosteniendo estas notas\
E|----------------------------------------------------------------------------------|
B|-----------------------------------------------------------------13---------------|
G|-12bv-------12v-------12v-------12-10--10h12---------10---12b(14)----(14)r12-10---|
D|--------------------------------------------12--10h12--------------------------12-|
A|----------------------------------------------------------------------------------|
E|----------------------------------------------------------------------------------|

E|--------------------|
B|--------------------|
G|------10--12br-10v--|
D|-10h12--------------|
A|--------------------|
E|--------------------|


E|----10-10---10----10-10---10-10---10-10---10---10-10----10-10---10-10----10----10-10-|
B|----10-10---10----10-10---10-10---10-10---10---10-10----10-10---10-10----10----10-10-|
G|-12b-----12b---12b-----12b-----12b-----12b--12b------12b-----12b------12b---12b------|
D|-------------------------------------------------------------------------------------|
A|-------------------------------------------------------------------------------------|
E|-------------------------------------------------------------------------------------|

E|----10----------------------------------------------------------------------------|
B|----10--13-10h13p10--10------------13---------------------------------------------|
G|-12b---------------12--12-10-12-12b---12br-10-12-10-----10-10--10-----10----10----|
D|----------------------------------------------------12--10-10--10--12-10-12-10-12-|
A|----------------------------------------------------------------------------------|
E|----------------------------------------------------------------------------------|

E|-------------------------------------------10-10---10-10----------------------------------------|
B|-------------------------------------------10-10---10-10----10----------------------------10-10-|
G|-10-10--10-----10-10--10----12b-12b-12b-12b-----12b------12b---12brp10-12-10----10-12-10--10-10-|
D|-10-10--10--12-10-10--10-----------------------------------------------------12---------12------|
A|------------------------------------------------------------------------------------------------|
E|------------------------------------------------------------------------------------------------|


E|------------------------------|          |
B|------------------------------|      |
G|------------------------------|      |
D|--7--7-5--3-7--7--3-5-3-2-3-2-|      |
A|-5--5----5--------------------|      |
E|------------------------------|      |
                              | X4
E|--------------------------------|      |
B|--------------------------------|      |
G|--------------------------------|      |
D|----2-2-3-2-3-2-5-5-3-3-2-2-3-3-|      |
A|-3-3----------------------------|      |
E|--------------------------------|      |


                        repite 3 veces mas esta parte
E|-----------------------|--------------------------------------|
B|-----------------------|--------------------------------------|
G|-7---10-9-10-9--9/5--5-|-7---9-10-9h10-9--10/12-12-10-9h10p9--|
D|--------------------7--|--------------------------------------|
A|-----------------------|--------------------------------------|
E|-----------------------|--------------------------------------|

E|------------------------------|
B|------------------------------|
G|-7-----14v----10v-----12v-----|
D|------------------------------|
A|------------------------------|
E|------------------------------|

C-D-D
F'-G'-G'
C-D-D
F'-G'-G'
D-C  C-A#

A|-5p3h5p3h5p3h5p3h5p3h5p3h5p3-|
E|-----------------------------|

D
Suggest correction
Give kudos to tab author, rate the tab!
1 2 3 4 5
comments
print report bad tab
guest
You may want to rate the tab now too:
select rating
Wanna post a correction for this tab? Suggest correction