Oops, an error
Loading. Please wait.

Calaveras Bass

17 views 1 this week
no commentswrite comment
1 2 3 4 5
3 more votes to show rating
add to favorites
launch autoscroll
font size
0
reset
guitar tuner
×
Best way to learn
"Calaveras"
Autoscroll
slow
fast
+/-
esc
set tempo
stop
Modificacion de mi tab anterior, ahora esta mejorada

Introducción:

LA SI
G|-------------------------------------|
D|-------------------------------------|
A|--0h2-2-2222-2-----------------------|
E|-------------------------------------|

Primer parte todo sobre:

SI - LA#

Segunda parte:
(porq sos un hombre fuerte...)
RE MI G FA#

Corte:


G|-------------------------------------|
D|-------------------------------------|
A|--5-4-3-2----5-4-3-2-3-2-00- y repite
E|-------------------------------------|

G|-------------------------------------|
D|----------12-14----------------------|
A|--2-2/(14)---------------------------|
E|-------------------------------------|

Por fin bien!
saludos!
Suggest correction
Give kudos to tab author, rate the tab!
1 2 3 4 5
comments
print report bad tab
guest
You may want to rate the tab now too:
select rating
Wanna post a correction for this tab? Suggest correction