Oops, an error
Loading. Please wait.

Calaveras Tab

52 views 1 this week
no commentswrite comment
1 2 3 4 5
3 more votes to show rating
add to favorites
×
Save as Personal and add changes to this tab that will be seen only by you. Learn more ›
×
You can save this tab as Personal to edit and correct it or add notes. All changes will be seen only by you. Learn more »
save as personal
new!
launch autoscroll
font size
0
reset
how to read this tab
guitar tuner
Autoscroll
slow
fast
+/-
esc
set tempo
stop
Intro:
   B    B    B    B       AsB
Eb--------------------------------------
Bb--------------------------------------
Gb-4----4----4----4------3s4------------
Db-4----4----4----4------3s4------------ x 8
Ab-2----2----2----2------1s2------------
Eb---------------------------0000000000-

Verso:
   B                            Bb
Eb---------------------------------------------------
Bb---------------------------------------------------
Gb-4----------------------------1--------------------
Db-4----------------------------3--------------------
Ab-2----------------------------3--------------------
Eb---------------------------------------------------
   Calaveras lastimadas,        se amontonan a beber.
   Arrastrando el peso muerto,  de lo que no pudo ser.

   B                            Bb
Eb---------------------------------------------------
Bb---------------------------------------------------
Gb-44444444444444444444444------1111111111111111111--
Db-44444444444444444444444------3333333333333333333--
Ab-22222222222222222222222------3333333333333333333--
Eb---------------------------------------------------
   Calaveras celebrando el      funeral de la razón.
   Deshojando margaritas,       todo gira alrededor.

Estribillo:
   D                            E
Eb---------------------------------------------------
Bb---------------------------------------------------
Gb-7-------------------------------------------------
Db-7----------------------------2--------------------
Ab-5----------------------------2--------------------
Eb------------------------------0--------------------
   Porque sos un hombre fuerte, pides otro trago más.
   
   G                             F#
Eb--------------------------------------------------------
Bb--------------------------------------------------------
Gb--------------------------------------------------------
Db-5------------------------------4-----------------------
Ab-5------------------------------4-----------------------
Eb-3------------------------------2-----------------------
   Y aunque estás tan lastimado,  sabes que no es el final.

   B                          Bb  
Eb-----------------------------------------------------
Bb-----------------------------------------------------
Gb-4--------------------------1------------------------
Db-4--------------------------3------------------------
Ab-2--------------------------3------------------------
Eb-----------------------------------------------------
   Calaveras que se ahogan,   manoteando el mostrador.
   Ojos secos que se miran,   que no encuentran matador.

             B                        Bb
Eb------------2-4-4b---------------------------------------
Bb----------4----------------------------------------------
Gb------------------------------------11111111111111111111-
Db------------------------------------33333333333333333333-
Ab------------------------------------33333333333333333333-
Eb---------------------------------------------------------
             Calaveras que se quedan, calaveras que se van.

   B                            Bb
Eb---------------------------------------------------------
Bb---------------------------------------------------------
Gb-44444444444444444444444444---11111111111111111111111111-
Db-44444444444444444444444444---33333333333333333333333333-
Ab-22222222222222222222222222---33333333333333333333333333-
Eb---------------------------------------------------------
   Recorriendo el campo santo,   de las mesas de algún bar.

Estribillo x 2

Eb---------------------------------------------------
Bb---------------------------------------------------
Gb--------------------------------------------------- x 2
Db---------------------------------------------------
Ab---------------------4s3---------------------------
Eb-4-3-2-1----4-3-2-1--2s1--0-0--4-3-2-1-------------
          PM                            PM    

   B    B    B    B      
Eb----------------------
Bb----------------------
Gb-4----4----4----4-----
Db-4----4----4----4-----
Ab-2----2----2----2-----
Eb----------------------

Solo:
Eb--------------------------------------------------------------------
Bb--------------------------------------------------------------------
Gb---12-14-14h15p14-12-------12-14-14h15p14-12------------------------
Db-14------------------14--14------------------14-13-14-16-16b-------
Ab--------------------------------------------------------------------
Eb--------------------------------------------------------------------

Eb--------------------------------------------------------------------
Bb--------------------------------------------------------------------
Gb---12-14-14h15p14-12-----12-14-14h15p14-12--------------------------
Db-14-----------------14-14------------------14--13-14-16-16br-14-15b-
Ab--------------------------------------------------------------------
Eb--------------------------------------------------------------------

Calaveras lastimadas se amontonan a beber.
Arrastrando el peso muerto de lo que no pudo ser.

Eb-------------------
Bb-------------------
Gb--14-14h15p14-12---
Db-------------------
Ab-------------------
Eb-------------------

Calaveras que se quedan, calaveras que se van.
Recorriendo el campo santo de las mesas de algún bar.

Estribillo x 2

Final:

   D     E     G     F# F# F# F# F# F#   D               E
Eb------------------------------------------------------------------
Bb------------------------------------------------------------------
Gb-7777----------------------------------7--------------------------
Db-7777--2222--5555--4--4--4--4--4--4----7--------------------------
Ab-5555--2222--5555--2--2--2--2--2--2----5---pasar púa---2///////---
Eb-------0000--3333--2--2--2--2--2--2--------pasar púa---0///////---
                      PM PM PM PM PM PM

Explicaciones:

b: estirar la cuerda
r: volver la cuerda 
h: hammer on (ligadura ascendente)
p: pull off (ligadura descendente)
s: slide (deslizar de un trasto a otro)
PM: palm mute (apoyar mano sobre las cuerdas)


Por consultas o si tocan algo y quieren formar una banda del 
estilo, manden un e-mail a: fab13@
Si no les gusta, ajo y agua.
Aguante el Garo y L Trmp (lo mejor del rock charrúa).
Suggest correction
Give kudos to tab author, rate the tab!
1 2 3 4 5
comments
print report bad tab
guest
Wanna post a correction for this tab? Suggest correction