Oops, an error
Loading. Please wait.

Canciones Al Viento Tab

73 views 1 this week
no commentswrite comment
1 2 3 4 5
3 more votes to show rating
add to favorites
launch autoscroll
font size
0
reset
how to read this tab
guitar tuner
×
Best way to learn
"Canciones Al Viento"
Autoscroll
slow
fast
+/-
esc
set tempo
stop
Muy buena la transcripción, re loka asi jajaja salu2
Le arreglé unas cositas no más
**********************************************************************
Ueenoooo
yo soy andres russi tengo 16 y ta' es mi primer tablatura avantiiii
ueno ta

la otra tablatura q hay me parecio q esta buena pero
 hay detalles que se saltea
Aqui va mi version con el solo incluido jjooojj
yta

Intro
        C             D           Em
|---------------0-----2-0-2-3-2-2---0-0------------0-0
|-------------1---1---3-3-3-3-3-3---0-0------------0-0
|-----------0-------0-2-2-2-2-2-2---0-0----------0-0-0
|---------2-----------0-0-0-0-0-0---2-2------0h2------
|---0h2h3---------------------------2-2--------------
|---------------------------------0-------------------


                      |--2-2-0-2
                      |--3-3-3-3
                      |--2-2-2-2
                      |--0-0-0-0
                      |---------
                      |---------
 C            D(tocarla asi ^
Nada sabe el viento
        Em      A7
que nunca se queda,
                                                    |---------------------
                                                    |---------------------
                                                    |-------0------0------
                                                    |--0h2----0h2----2----
                                                    |------------------0-3
                                                    |---------------------
                                          aka engancha el acorde siguiente^
C                D(tocar =)Em (4 o 6 veces rasguido y dsps ^)
      que todo ayuda a perder.
      C               D(mesmo)        Em     A7
      Soplan desde el alma rachas de aire nuevo
      C          D(igual)           Em     (dejar sonando asi reloko)
      que al fin le harán comprender


Riff loko con paneo RE loko:

|-------------------------------------------------------
|-------------------------------------------------------
|-------------------------------------------------------
|---------------5h[7]--5~-------------------------------
|--5h7--7-7-5-7------------7-5---5-7-5---5---------5---5
|------------------------------7-------7---7-5-6-7---7-- x 4
                                   palm mute ···········
el 7 esta en parentesis por que es un pinch harmonic asi q como q
dejas un pedacito de dedo que salga de la pua y tocas la cuerda
con la pua y el dedo y hace asi un ruido todo metalero chilloso

----------------------
acordes usados para esta parte de guitarra electrica
  Em       G       A     E2 (mas comodo pa tocar el estribillo)
|---     |---   |---    |---
|---     |---   |---    |--5
|--9     |---   |---    |--4
|--9     |--5   |--7    |--2
|--7     |--5   |--7    |---
|---     |--3   |--5    |---
  D        B      C      G2 (dos octavas mas arriba)
|---     |---   |---   |---
|---     |---   |---   |--8
|--7     |---   |--5   |--7
|--7     |--9   |--5   |--5
|--5     |--9   |--3   |---
|---     |--7   |---   |---


(*= tocar acorde una vez y mutarlo con la mano)
(**= este acorde ese hay q mutarlo y tocar
la primer cuerda presionada 2 veces asi onda heavy metal oh yeah)
(***= tocar acorde, con palm mute metalerororororo)

(/ = slide)
----------------------

Em*              Em*/D*             G*          G*/B*    B**  G*/B*
   Quiero una canción que vuele cuando ya no vuele yo
Em*              Em*/D*           D*  G*     G*/B*  B** G*/B*
   que se haga viento en el aire cuando no respire yo
    Em***   /D***                G***         /B***        G/B*
    quie   -      ro    un vien -   to     que te     can -   te
    Em***   /D***           G***             /B***            B
    cua    -      ndo   ya no       cant   -   e       yo.


-----lo mismo abajo, ta no me dan las bolas para hacerlo pero tienen
la idea  de donde van los  acordes


Quiero ser más que silencio cuando nada diga yo
quiero ser más que palabras rondando tu corazón
quiero más que cielo abierto
cuando suene mi canción.


-------en el estribillo hay que arpegiar los acordes con un 2------


                               (Subida dos octavas)
C              D               G2(^)        E2
Caaaaaaancioooones al viento,         las manos vacías
 C         D          E(tocarlo RE loco 10 veces)
   ¿hasta dónde llegarán?
C              D                   (armonicos espacio 12)
                          cuerda|  4   3   2   3    4   3   2   3
                         espacio|-12--12--12--12---12--12--12--12-------
Caaaaaanciooooones al viento,    esas       son mis alas
 C            D
   que no podrán derribar.


----- ta aca tocas el riff loko con paneo loko ------


Quiero una canción que vuele cuando ya no vuele yo
que sea viento y se haga canto cuando ya no cante yo
y si es viento y se hace canto en el aire estaré yo.

Canciones al viento, las manos vacías,
como pájaros se van.
Canciones al viento y no de despedida
que en el aire     viviraaaaaaaaaaaaaaaaaaaaaaaaaaaaaaaaaaán.
               |----------------------------------------------
               |--12b13--12b13--12b13--12b13--12b13--12b13--12
               |----------------------------------------------
               |----------------------------------------------
               |----------------------------------------------
               |----------------------------------------------

------aca el solo JOJOJO


|--------------------------------------------------------|
|-----------------------------------15-------------------|
|---------12----14b16--14-12-14b16-----14b16--14~--14b16-|
|--12h14-----14------------------------------------------|
|--------------------------------------------------------|
|--------------------------------------------------------|

|--------------------------------
|--------------------------------
|-12----12----14b16--12----14b16-
|----14----14-----------14-------
|--------------------------------
|--------------------------------

|-----------------------------------------------------
|-------------------------15h17h18p17p15h17--15-12----
|--14-14b16--14-12-14/16------------------------------
|-----------------------------------------------------
|-----------------------------------------------------
|-----------------------------------------------------

|--------------------------------------
|----12-15-15-15p12-----12-12h15-12----
|-/14-----------------14-------------14
|--------------------------------------
|--------------------------------------
|--------------------------------------

|-------------------------------------------
|-----12-15-12h15--12----12-15-12h15--12----
|--14-----------------14-----------------14-
|-------------------------------------------
|-------------------------------------------
|-------------------------------------------


|---------------------------------------------
|12-15-12h15--12-15-15b17--15b17--12-15-12h15-12
|---------------------------------------------
|---------------------------------------------
|---------------------------------------------
|---------------------------------------------

|-----------------------------------------------------------
|--15-12h15--12----12------------------------------15-------
|---------------14----14-12h14--12----12----14b16-----14b16-
|----------------------------------14----14-----------------
|-----------------------------------------------------------
|-----------------------------------------------------------

---------------x-x--------------
---------------x-x--------------
-12-14-12------x-x--------12-14-
----------14---x-x--12h14-------
---------------x-x--12h14--------
---------------x-x--------------


|-------------------------------------------------------
|-------------------------------------------15----------
|--12----12----12-14-14b16--12-14-12-14b16-----14b16--12
|-----14----14------------------------------------------
|-------------------------------------------------------
|-------------------------------------------------------


Dsps tocas el estribillo devuelta,

Y el final tocas el riff re loko pero con una diferencia va tocado asi

|-----------------------------------------------------------
|-----------------------------------------------------------
|-----------------------------------------------------------
|---------------5h[7]--5~-----------------------------------
|--5h7--7-7-5-7------------7-5---5-7-5---5------------------
|------------------------------7-------7---7-5-6-7-3b-0-----


y ta cualkier cosa

manda un mail a bolsocapo2007@
nos vimos
Suggest correction
Give kudos to tab author, rate the tab!
1 2 3 4 5
comments
print report bad tab
guest
You may want to rate the tab now too:
select rating
Wanna post a correction for this tab? Suggest correction