Oops, an error
Loading. Please wait.

Carne Tab

8 views 1 this week
no commentswrite comment
1 2 3 4 5
3 more votes to show rating
add to favorites
launch autoscroll
font size
0
reset
how to read this tab
guitar tuner
Autoscroll
slow
fast
+/-
esc
set tempo
stop
Help us to improve Ultimate-Guitar.com Take our survey!
×
A = Harmónico artificial
. = palm mute
b = estirar
r = release/volver la estirada
/ = slide
p = pull off
v = vibrato

CARNE
=====

INTRO:
======
D|-----------------|             |-----------------------|
A|-5/4---4/3---3/4-|X3 Y DESPUES |-4-4-4-4-4-4-4-4-4-4-4-|
E|-3/2-2-2/1-1-1/2-|             |-2-2-2-2-2-2-2-2-2-2-2-|
       .     .                     .....................

D|----------------------------------------------------------------------|
A|-------9--------9--------5-4-4-3-3-4--4-4-4-4-4-4-4-4-4-4-4-4-4-4-4-4-|
E|-2-3-5-7--2-3-5-7--2-3-5-3/2-2/1-1/2--2-2-2-2-2-2-2-2-2-2-2-2-2-2-2-2-|
   .        .        .                  .....................

VERSOS:
=======
D|-----4-------------------------------------------------|
A|-7-5-2---5-7-9---9/7-5---9/7-5---5p4-7---5p4-7---5/7-9-| REPITE
E|-5/3-----3/5-7---7/5-3---7/5-3-------5-------5---3/5-7-|

la ultima repeticion hace:

D|-----4---------------------------------------------------------------------|
A|-7-5-2---5-7-9---9/7-5---9/7-5---7-7-7-7-7-7-7-5-5-5-5-5-5-5-4-4-4-4-4-4-4-|
E|-5/3-----3/5-7---7/5-3---7/5-3---5-5-5-5-5-5-5-3-3-3-3-3-3-3-2-2-2-2-2-2-2-|
                                     ...........   ...........   ...........

PUENTE:
=======
B5
Dame mas, dame mas, dame de tu lengua
B5
Dame mas, dame mas, todo lo que tengas

ESTRIBILLO:
===========
(Dame mas, dame mas, lo que nunca--- dame mas, dame mas---)
D|---------------------------------------------|
A|-7/9--9--9-9-9--9--9-9-9--7/9-7/9--9--9-9--9-| REPITE
E|-5/7--7--7-7-7--7--7-7-7--5/7-5/7--7--7-7--7-|
           .....     .....            ...


SOLO:
=====
E|-----------------------------------------------------------------------|
B|---------12-12-12-12-12-12-12------------------------------------------|
G|---------11-11-11-11-11-11-11--9b-9-7-9-7-9bv-----7--9Av--------7Avh9--|
D|-/9v--------------------------------------------9--9-------9-7-9-------|
A|------------------------------------------------9----------9-----------|
E|-----------------------------------------------------------------------|
                                                     ....

E|---7--7-7---7-7---7-7-|----------------------------------------------|
B|---7--7-7---7-7---7-7-|--/19---------15-17-17brp15--15-17-17brp15----|
G|-9b-9b----9b----9b----|------------16-------------16-----------------|
D|----------------------|----------------------------------------------|
A|----------------------|----------------------------------------------|
E|----------------------|----------------------------------------------|


E|--------------------------------------------------------------|
B|---15-17-17brp15--15-17-17brp15--15-17-17brp15--15-17-17br15v-|
G|-16-------------16-------------16-------------16--------------|
D|--------------------------------------------------------------|
A|--------------------------------------------------------------|
E|--------------------------------------------------------------|

E|--------------------------------------------------------------|
B|----12----------------------------------------------------/19-|
G|-/11--11-14-11------11---------11----11--11--11--11--11-------|
D|---------------14-12--12-14-14b---14b---14b-14b-14b-14b-------|
A|--------------------------------------------------------------|
E|--------------------------------------------------------------|

FINAL:
======

D|-------------4-----4-|
A|-5p4-4p3-3p2-2-----2-|
E|---------------------|
Suggest correction
Give kudos to tab author, rate the tab!
1 2 3 4 5
comments
print report bad tab
guest
You may want to rate the tab now too:
select rating
Wanna post a correction for this tab? Suggest correction