Oops, an error
Loading. Please wait.

Clavel Del Aire Tab

41 views 1 this week
no commentswrite comment
1 2 3 4 5
3 more votes to show rating
add to favorites
launch autoscroll
font size
0
reset
how to read this tab
guitar tuner
×
Best way to learn
"Clavel Del Aire"
Autoscroll
slow
fast
+/-
esc
set tempo
stop
Intro (Riff)

D -4-4----------4-4---------------------4-2----
A -2-2---4-5-4--2-2---4-5-4-2--0----5-4-----5-4
E --------------------------------2------------
(x2)

Bm           G
 Como un clavel del aire
D           F#
   se prendió
Bm        G            D
  ella decía que era amor
      F#
pero no
Bm          G             D
  quisé librarme de su abrazo
      F#
incansable
Bm                  G          D
  y al fin me entregé a su pasión
      F#
implacable

Riff (x2)

Bm            G          D          F#
 "Pasamos la noche y me voy, te lo juro"
Bm          G         D          F#
  me dijo y apagó la luz y prendió

F#7 F#7 F#7 F#7

G
  amar hasta morir
E
  querer hasta matar
G
  dormir y despertar
A
  inseparables

Bm           G           D            F#
  no sé si fue su blusa lila tan generosa
Bm            G         D        F#
  lo que invitó mi corazón a su sombra
Bm          G          D               F#
  yo dí mi vida y ella,  nos dió una flor
Bm           G           D       F#
  se fue soltando y solamente cayó

F#7 F#7 F#7 F#7

G
  amar hasta morir
E
  querer hasta matar
G
  dormir y despertar
A
  inseparables

e|-------------------------------------
B|-------------------------------------
G|-11~--9-7-6-4----11~---9--9/12--11---
D|-------------------------------------
A|-------------------------------------
E|-------------------------------------
(x2)

e|---------------------------------------------------------------
B|-------------------------------------------------------------8-
G|--------------------------------------14--12--11-9-7---6-7-9---
D|-9~---11-12---7~---11-12--9~---11-12---------------------------
A|---------------------------------------------------------------
E|---------------------------------------------------------------

(esta parte queda bien si es todo deslizando en la misma cuerda)

Em              Bm
  si pienso en vos
Em              Bm
   me rindo ante el dolor
Em               Bm
   si pienso en vos
    G         G
es fácil entregarme
    G      F#
clavel del aire


G
  amar hasta morir
E
  querer hasta matar
G
  dormir y despertar
A
  inseparables

G
  amar hasta morir
E
  querer hasta matar
G
  dormir y despertar
A
  inseparables

Riff (x2)

Bm Bm Bm Bm

F#7

E-x
B-7
G-9
D-8
A-9
E-x
Suggest correction
Give kudos to tab author, rate the tab!
1 2 3 4 5
comments
print report bad tab
guest
You may want to rate the tab now too:
select rating
Wanna post a correction for this tab? Suggest correction