Oops, an error
Loading. Please wait.

Contrapiso Para El Alma Tab

62 views 1 this week
no commentswrite comment
1 2 3 4 5
3 more votes to show rating
add to favorites
×
Save as Personal and add changes to this tab that will be seen only by you. Learn more ›
×
You can save this tab as Personal to edit and correct it or add notes. All changes will be seen only by you. Learn more »
save as personal
new!
launch autoscroll
font size
0
reset
how to read this tab
guitar tuner
Autoscroll
slow
fast
+/-
esc
set tempo
stop
|------------------------------------------------------
|------------------------------------------------------
|---5-----4-----5-----4-----5---5-----4-----5-----4-----5
|-7---7-7---7-7---7-7---7-7---5---5-5---5-5---5-5---5-5--
|--------------------------------------------------------
|------------------------------------------------------

-------------------------
-------------------------
---5-----4---------------
-3---3-3---3---7-----7-7- (X2)
-------------5---5-5-----
-------------------------

Riff:
|-----------------------------------------
|-----------------------------------------
|-----------------------------------------
|-----------------------------------------
|-3-3-3-3-3-3-2/3-3-3-3/5-5-5-5/3-3-3-2/3-
|-----------------------------------------

Coros (opcional):
 A     G     F    D   F'   D    C     
|---------------------------------------
|---------------------------------------
|---------------------------------------
|---------------------------------------
|-0-2-3---2-3---3-2-0---3-2-0-3-5-3-2-3-
|-------3-----1-------1-----------------


A              
Cuando mires atras
G                   F  D  
Seremos solo un recuerdo
F'   D          C      Riff 
apenas seremos ciertos

Ya me vas a olvidar
Te deseo buena suerte
y un amor que te haga fuerte

C           B 
La morfina de la pena
C            D
La anestesia del dolor
E'           D 
Una mano en el bolsillo
C            D
y otra que te da el adios

F'                   C
Se que la vida es algo dura
D                    A/F' 
busca una senda y la felicidad


F':
|-
|-
|-10
|-10
|-8
|-

E':
|-
|-
|-9
|-9
|-7
|-


Aguante la trampa
Suggest correction
Give kudos to tab author, rate the tab!
1 2 3 4 5
comments
print report bad tab
guest
Wanna post a correction for this tab? Suggest correction