Oops, an error
Loading. Please wait.

El Oro Y La Maldad Tab

68 views 1 this week
no commentswrite comment
1 2 3 4 5
3 more votes to show rating
add to favorites
launch autoscroll
font size
0
reset
how to read this tab
guitar tuner
×
Best way to learn
"El Oro Y La Maldad"
Autoscroll
slow
fast
+/-
esc
set tempo
stop
esta es mi primer cancion q la disfruten
s=slide
b=estirada ascendente
r=desenso de estirada
el tema esta a dos guitarras esto es lo que hace la guitarra q puntea

Intro:
 |-------------------|-------------|---------------|
 |-8-8-7-7---8-8-7---|-----8---8s--|-10-10-8-8-7---|
 |---------9-------9-|-7-7---7-----|---------------|
 |-------------------|-------------|---------------|X2
 |-------------------|-------------|---------------|
 |-------------------|-------------|---------------|

 b|-5s-(3s)-(4)------|

  se que todo va a pasar...
 |-------------------|-------------|---------------|
 |---5---5-3---------|-------------|---------------|
 |-4---4-----5-2-4-5-|-4-0-2-4-----|-2b4r2---------|
 |-------------------|-------------|---------------|
 |-------------------|-------------|---------------|
 |-------------------|-------------|---------------|


 |-------------------|-------------|---------------|
 |---5---5-3---------|-------------|---------------|
 |-4---4-----5-4-2-0-|-2-0-0-2-----|-4-2-0-2-------|
 |-------------------|-------------|---------------|
 |-------------------|-------------|---------------|
 |-------------------|-------------|---------------|

 una mueca sin disfraz...
 |-------------------|-------------|---------------|
 |-------13-----10---|-----8------12|--------------|
 |----12------9------|---7-----11--|---------------|x2
 |-10-------7--------|-5-----9-----|---------------|
 |-------------------|-------------|---------------|
 |-------------------|-------------|---------------|

 ovejero...(se repite lo mismo que "se que todo va a pasar")

 dientes en...(se repite lo mismo que "una mueca sin dizfraz")

 (intro)

no despiertes...(se repite lo mismo que "se que todo va a pasar")

 que mañana...(se repite lo mismo que "una mueca sin dizfraz")

 (intro)

este tema esta grabado
con dos guitarras aca solo esta la
guitarra que hace los punteos
la otra guitarra toca los acordes rasgados
nico carvallo niconegriazul@
Suggest correction
Give kudos to tab author, rate the tab!
1 2 3 4 5
comments
print report bad tab
guest
You may want to rate the tab now too:
select rating
Wanna post a correction for this tab? Suggest correction