Oops, an error
Loading. Please wait.

Frente A Frente Tab

38 views 3 this week
no commentswrite comment
1 2 3 4 5
3 more votes to show rating
add to favorites
launch autoscroll
font size
0
reset
how to read this tab
guitar tuner
×
Best way to learn
"Frente A Frente"
Autoscroll
slow
fast
+/-
esc
set tempo
stop
. = Palm Mute
h = hammer on
p = pull off
/ = slide
v = vibrato
b = bend (estirar)
r = release

INTRO:
======

E|------------------------------------------------------|
B|------------------------------------------------------|
G|------------------------------------------------------|
D|---------------------------------9/10--10-9-9-5-5-----|
A|---3h5---------3h5-----666-5-C---7/8---8--7-7-3-3-----|
E|-A----G#---A------G#--------------------------------A-|
                         .....

VERSOS:
=======

A5         G#5     C5        F5              G#5   A#5
Hoy que querías jugar se sienta enfrente el olvido.
A5    G#5       C5         F5          G#5  G5
Mesa de negro licor, tumba de naipes heridos.
A5   G#5       C5           F5          G#5  A#5
Cínica escena fatal en la que muere una carta,
A5   G#5         C5          F5       G#5   G
carta que fue la mejor de tu suerte asesinada.

ESTRIBILLO:
===========

B5/C5
Frente a frente se han quedado,5
B5/C5
juegan solos manos a mano.
B5/C5
Cuando ya no queda suerte
B5/C5          A#5        G#5
sólo el diablo se divierte.

PUNTEO:
=======

E|------------------------------------|----------------------------------|
B|----13-15--16r15-13-15b-15b-15b-15b-|-16p13--16p13--16p13--16p13-------|
G|-/14--------------------------------|------14-----14-----14-----14-15b-|
D|------------------------------------|----------------------------------|
A|------------------------------------|----------------------------------|
E|------------------------------------|----------------------------------|

E|---------------------------|
B|-16p15p13------------------|
G|---------16p14p13h14p13p12-|
D|---------------------------|
A|---------------------------|
E|---------------------------|

E|-----------------------------------------------------------------------|
B|-16p15p13--------16p15p13--------16p15p13--------16p15p13--------------|
G|---------16p14p13--------16p14p13--------16p14p13--------16p14p13------|
D|-----------------------------------------------------------------15brv-|
A|-----------------------------------------------------------------------|
E|-----------------------------------------------------------------------|

E|---------------------------------------------------------|
B|---------------------------------------------------------|
G|-15b-15p13p12-15b-15p13p12-15b-15p13p12-15b-15p13p12-15v-|
D|---------------------------------------------------------|
A|---------------------------------------------------------|
E|---------------------------------------------------------|

E|-------------------------------|
B|---13-16-16b18-18r16-16--------|
G|-15---------------------17-17v-|
D|-------------------------------|
A|-------------------------------|
E|-------------------------------|
Suggest correction
Give kudos to tab author, rate the tab!
1 2 3 4 5
comments
print report bad tab
guest
You may want to rate the tab now too:
select rating
Wanna post a correction for this tab? Suggest correction