Oops, an error
Loading. Please wait.

Gajo De Luz Tab

15 views 1 this week
no commentswrite comment
1 2 3 4 5
3 more votes to show rating
add to favorites
launch autoscroll
font size
0
reset
how to read this tab
guitar tuner
Autoscroll
slow
fast
+/-
esc
set tempo
stop
Help us to improve Ultimate-Guitar.com Take our survey!
×
ACORDES:> Am  G  D

INTRO

E|-----8--10v10810T-----108--------8--10v10810T-10v8108-------|
B|-8h10-10-----------810---10108h10-10-----------------1010---|
G|------------------------------------------------------------|
D|------------------------------------------------------------|
A|------------------------------------------------------------|
E|------------------------------------------------------------|

E|---------------------8--10v10810T-10v8108-------------------|
B|-1087577v57h8h10-8h10-10-----------------1010---------------|
G|------------------------------------------------------------|
D|------------------------------------------------------------|
A|------------------------------------------------------------|
E|------------------------------------------------------------|


Am            G             D  (en LA cuerda 5 queda mejor)
Cuna celeste menguada y fría
Am            G             D
sin más rebozo que una poesía,
punteito x 2
¿quién quiere verte vacía
por siete noches seguidas?

Punteito
D|-7-75-57--------------|
A|--7--5----------------|
E|--------578755--------|

E|-----8--10v10810T-----108--------8--10v10810T-10v8108-------|
B|-8h10-10-----------810---10108h10-10-----------------1010---|
G|------------------------------------------------------------|
D|------------------------------------------------------------|
A|------------------------------------------------------------|
E|------------------------------------------------------------|


Am            G             D
¿Dónde se anidan las culpas mías?
Am            G             D
Sé que mi infancia en tu falda fría.
Punteito x2
MI túnica enfurecida
ya sabe de otra caída.

Am     G      D  esta parte los acordes son + graves (6ta cuerda)
Gajo de luz,
siete noches serás
Gajo de luz,
ya te apagarás.


Espero que rinda!
DK
Suggest correction
Give kudos to tab author, rate the tab!
1 2 3 4 5
comments
print report bad tab
guest
You may want to rate the tab now too:
select rating
Wanna post a correction for this tab? Suggest correction