Oops, an error
Loading. Please wait.

La Mordida Tab

45 views 1 this week
no commentswrite comment
1 2 3 4 5
3 more votes to show rating
add to favorites
launch autoscroll
font size
0
reset
how to read this tab
guitar tuner
×
Best way to learn
"La Mordida"
Autoscroll
slow
fast
+/-
esc
set tempo
stop
h = hammer on
p = pull off
/ = slide
v = vibrato

temardo de la trampa!!
en el comienzo hay una guitarra limpia que hace algo asi
D|---------------------------------|------------------------------|
A|---4---6-7-6h7p6-4-6----4---6-7--|---4---6-7-6h7p6-4-6----4-----|x2
E|-4---4----------------4---4------|-4---4----------------7---6-7-|

PUNTEO INICIAL:
================

E|------------------------------------------------------------|
B|-----------------------16---14------------------------------|
G|---13---13-16-15----13---16----15-16-15------15-16-15h16p15-|
D|-13---13----------13-------------------15--15---------------|
A|------------------------------------------------------------|
E|------------------------------------------------------------|

E|----------------------------------------------------------------|
B|----------------------------------------------------------------|
G|---15-16-15h16p15/13-15-12-13------13-16-15---13-16-15-13-15-13-|
D|-15--------------------------14--14---------14------------------|
A|----------------------------------------------------------------|
E|----------------------------------------------------------------|

E|-----------------|
B|-----------------|
G|-----------------|
D|-13-11-9-8-9-8-6-|
A|-----------------|
E|-----------------|


G#m                  A#
Esperamos que todo pasara y no pasó
E               Eb
la alegría no llegó
G#m*                           A#*
la carne se ha vuelto piedra y tierra el corazón
E*                     Eb
agua las ideas que se van
y yo que siempre...


G#m*
D|------------------------------|
A|-6-6--6-6--6-6--------4-------|
E|-4-4--4-4--4-4--4-6-7---7-6-7-|

A#*
D|--------------------------------|
A|-8-8--8-8--8-8--------6---9-8-7-|
E|-6-6--6-6--6-6--6-7-9---9-------|

E*
D|-9-9--9-9--9-9-------------------------------|
A|-7-7--7-7--7-7--7-6---6--------6-6/7-6-4-2-1-|
E|--------------------9---9-7-6----------------|


G#m    E   F#
despertaba con la ilusión de que fuera
G#m        E   F#                         G#m*
solo un sueño y la verdad me mordió en la cama
                        F#                     G#m*
la carne que no tiembla más se pierde entre los dientes
                     F#                  G#m*
de una mordida que se va devorando mi mente.


Al final hace un punteito que es los mismos riffs de los asteriscos pero
echos una octava mas arriba, por ej:
Sobre la base de G#m hace:
E|------------------------------|
B|------------------------------|
G|----------------------6-------|
D|-6-6--6-6--6-6--6-8-9---9-8-9-|
A|------------------------------|
E|------------------------------|

Luego repite el punteo inicial y termina con una pequeña variacion que es:
E|---------------------------------------|
B|---------------------------------------|
G|---------------------------------------|
D|---------------------------------------|
A|-13-13/14-13-11-9-8--13-13/14-13-----6-|
E|-------------------------------------4-|
Suggest correction
Give kudos to tab author, rate the tab!
1 2 3 4 5
comments
print report bad tab
guest
You may want to rate the tab now too:
select rating
Wanna post a correction for this tab? Suggest correction