Oops, an error
Loading. Please wait.

Los Patios Del Alma Tab

7 views 1 this week
no commentswrite comment
1 2 3 4 5
3 more votes to show rating
add to favorites
launch autoscroll
font size
0
reset
how to read this tab
guitar tuner
×
Best way to learn
"Los Patios Del Alma"
Autoscroll
slow
fast
+/-
esc
set tempo
stop
h = hammer on
p = pull off
/ = slide

INTRO:
======

D|--------------------------|
A|--------------------------|
E|-3--6p3h5--6-5-3-6--5p3h5-|

RIFF 1:
=======
D|---------------------------------------------|
A|-----5-4-----6-5---------5-4-----6-5-4-3-----|x2
E|-3-6-----6-5-----6---3-6-----6-5---------6-5-|


VERSOS: casi todas las notas las hace tapadas
=======

Tu voz recuerda al gorrion...
D|-------------------------------|
A|------5---4-444-1--6-666-5-----|
E|-3-333---------------------6-5-|

mezcla de vuelo y herida...
D|----------------------------------|
A|------5---4-444-1--6-666-5-4-3----|
E|-3-333------------------------6-5-|


RIFF 2:
=======
D|------------------------------|
A|---5--4-7-4---3-6--3-4-5--5-5-|
E|-3----------6-----------------|


ESTRIBILLO:
===========
A#5           F5        G5  A#5     F5        G5*
Vuela de ese patio inmundo donde todo es humedad,
*D|-------------|
 A|-5/6-5-3-0-1-|
 E|-------------|

A#5            F5       G5    A#5          F5      G5   A5
afuera hay un vientre urbano, hay un pulso en la ciudad.
Suggest correction
Give kudos to tab author, rate the tab!
1 2 3 4 5
comments
print report bad tab
guest
You may want to rate the tab now too:
select rating
Wanna post a correction for this tab? Suggest correction