Oops, an error
Loading. Please wait.

Muere Con La Sonrisa Tab

25 views 1 this week
no commentswrite comment
1 2 3 4 5
3 more votes to show rating
add to favorites
launch autoscroll
font size
0
reset
how to read this tab
guitar tuner
Autoscroll
slow
fast
+/-
esc
set tempo
stop
Help us to improve Ultimate-Guitar.com Take our survey!
×
b = bend / estirar
r = release / soltar la estirada
p = pull off / ligado descendente

INTRO:
======
E|------------------------------------------------------------|
B|------------------------------------------------------------|
G|-4-6-6-4-6-6-4-6-6--4-6-7-6-7--6-7-7-6-7-7-6-7-7--6-7-9-7-9-|
D|-4-6-6-4-6-6-4-6-6--4-6-7-6-7--6-7-7-6-7-7-6-7-7--6-7-9-7-9-|
A|-2-4-4-2-4-4-2-4-4--2-4-5-4-5--4-5-5-4-5-5-4-5-5--4-5-7-5-7-|
E|------------------------------------------------------------|

     (esta parte
     es el RIFF 1)
E|--------------------|------------|--------------------------|
B|----7--7-9brp7------|------------|----7--7-9brp7------------|
G|---9--9-------9-7-9-|REPITE TODA-|---9--9-------9-7-9--9-7--|
D|--9-----------------|LA 1º FILA--|--9-----------------------|
A|-7------------------|------------|-7------------------------|
E|--------------------|------------|--------------------------|

E|--------------------|
B|--------------------|
G|-7-6--6-4--4-2-1--2-|


VERSOS:
=======
No escribas el verano en la piel de mi mano
pasa, sueña y escapa libre.
A                  B
Nunca seré primero, soy un viento extranjero
D                     A
que también pasa y sueña libre.

PUENTE:
=======
D|---------------|
A|-------0-1-2-3-|
E|-2-3-4---------|

ESTRIBILLO:
===========
C#5
Porque tus sueños te darán
D5                    RIFF 1
lo que la vida no te da
C#5
Porque tus sueños te darán
D5                     E5
lo que la vida no te da
Suggest correction
Give kudos to tab author, rate the tab!
1 2 3 4 5
comments
print report bad tab
guest
You may want to rate the tab now too:
select rating
Wanna post a correction for this tab? Suggest correction