Oops, an error
Loading. Please wait.

Muerte Serena Tab

53 views 1 this week
no commentswrite comment
1 2 3 4 5
3 more votes to show rating
add to favorites
launch autoscroll
font size
0
reset
how to read this tab
guitar tuner
×
Best way to learn
"Muerte Serena"
Autoscroll
slow
fast
+/-
esc
set tempo
stop
Esta es una correccion de la tab anterior, le agregue
los 2 solos de guitarra... cualquier cosa escriban.


h = hammer on (ligado ascendente)
p = pull off (ligado descendente)
/ = slide
v = vibrato
b = bend (estirar)
r = release (soltar la estirada)

RIFF 1:
=======

E|-----------------------------------------|
B|-----------------------------------------|
G|-----------------------------------------|
D|----------2--4-4s5-4--5-4-2--4-5-4--4p2--|
A|-2h3p2---------------------------------2-|
E|-----------------------------------------|

E
Ese cuerpo que me enreda,
D
que me encadena
C            B
me esta matando, me esta matando

Con los ojos bien abiertos
buscando el cielo
voy escapando
voy escapando de este amor

que me condena, a este dolor
muerte serena
que tal si quiere alguna flor...

(RIFF 1)

Hace tiempo que este viento
me surca el alma
y me condena el corazon

Por el ansia de mi sangre
te estoy buscando
quiero tu pelo, quiero tus manos quiero el sol

de tus ojos, quemandome
sin pedir nada
morir en tu pecho mujer

1º SOLO:
========

E|--------------------------------------------------------------------------|
B|--------------------------------------------------------------------------|
G|-9-10-11------------------------------------------------------------------|
D|--------10---101010-9------------------------10-9-10-10s14--14-10h14p10-9-|
A|----------------------12-10h12p10-9v-----9-10---------------14------------|
E|---------------------------------------12---------------------------------|

E|-------------------------------------------------|
B|-------------------------------------------------|
G|-------------------------------------------------|
D|-999-------------------------------------------9-|
A|-----12-10--10-12-10-9----9--------------------9-|
E|-----------------------12-----12-10h12p10h12-9-7-|

E|---------------------------------------|
B|-------------------------------7-8/10v-|
G|-----7----------------------7-9--------|
D|-7h10--10-9h10p9-7---7-9-10------------|
A|------------------10-------------------|
E|---------------------------------------|


Intermedio: C-B (x4)
====================
Por el brillo de tus ojos
me estoy quemando
Por el filo de tus labios
me estoy cortando
Por la senda de tu pelo
Estoy llegando
Pero mujer
me estas matando...


2º SOLO:
========

E|----------------------12-12---12-12---12--------------------------|
B|----12----12---12-----12-12---12-12---12--------------------------|
G|-14b--14b---14b---14b------14b-----14b--14brp12---12---------12---|
D|-----------------------------------------------14----14-12-14-----|
A|------------------------------------------------------------------|
E|------------------------------------------------------------------|

E|-------------------------------15-------------------|
B|-------------------------------15-15-12-------12-12-|
G|---12-12---12--12--12-14-14b------14-12-------12-12-|
D|-14------14------14---------------------14-14-------|
A|----------------------------------------------------|
E|----------------------------------------------------|

E|--------------------------------------------------------------|
B|----------------------------------------------------15-15--15-|
G|-/7-9-9-7-9-9--9--7-9-9--9--7-9-9--9--9-7-9--12-14b----14--14-|
D|--------------------------------------------------------------|
A|--------------------------------------------------------------|
E|--------------------------------------------------------------|

E|----------------------------------------|
B|---------15-----15-----15-----15-16-17v-|
G|-14h15-16--15h16--15h16--15h16----------|
D|----------------------------------------|
A|----------------------------------------|
E|----------------------------------------|
Suggest correction
Give kudos to tab author, rate the tab!
1 2 3 4 5
comments
print report bad tab
guest
You may want to rate the tab now too:
select rating
Wanna post a correction for this tab? Suggest correction