Oops, an error
Loading. Please wait.

Peligro Tab

33 views 1 this week
no commentswrite comment
1 2 3 4 5
3 more votes to show rating
add to favorites
launch autoscroll
font size
0
reset
how to read this tab
guitar tuner
Autoscroll
slow
fast
+/-
esc
set tempo
stop
Help us to improve Ultimate-Guitar.com Take our survey!
×
Intro:

e|-------------------------------------------
B|-------------------------------------------
G|-----------------------------0-------------   X2
D|---1---0---1---3---1-0---3-----3-------0---
A|-3---3---3---3---3-----1---1-------1-----1-
E|---------------------------------3---3-----


        Como el animal,      come de tu mano
e|-------------------------------------------
B|-------------------------------------------
G|-----------------------------0-------------
D|---1---0---1---3---1-0---3-----3-------0---
A|-3---3---3---3---3-----1---1-------1-----1-
E|---------------------------------3---3-----


       come el criminal,     que tanto ocultamos

e|-------------------------------------------
B|-------------------------------------------
G|-----------------------------0-------------
D|---1---0---1---3---1-0---3-----3-------0---
A|-3---3---3---3---3-----1---1-------1-----1-
E|---------------------------------3---3-----


       peligro al hablar,    miedo en el deseo

e|-------------------------------------------
B|-------------------------------------------
G|-----------------------------0-------------
D|---1---0---1---3---1-0---3-----3-------0---
A|-3---3---3---3---3-----1---1-------1-----1-
E|---------------------------------3---3-----


    peligro al pensar.     ssshhhhhh

e|----------------------------------------------
B|----------------------------------------------
G|----------------------------------------------
D|---1---0---1---3---1-0----------1---1---1/3---
A|-3---3---3---3---3-----1------3---3---3-------
E|----------------------------------------------

C   D#   C   D#   F   D#   C   A#
Lengua para vos, para arrinconarme
saliba en la piel, para anesteciarte
dientes para amar, o para asustarte
muelas para odiar, para triturarte

D|---1---0---1---3---1-0----
A|-3---3---3---3---3-----1-- FFFFFFFF
E|--------------------------

D|---1---0---1---3---1-0----
A|-3---3---3---3---3-----1-- GGGGGGGG
E|--------------------------
C   D#   C   D#   F   D#   C   A#
quieres macho al fin, quieres hembra siempre
tu eres cazador, que nos cuida siempre

D|---1---0---1---3---1-0----
A|-3---3---3---3---3-----1--
E|--------------------------

peligro en las sombras
C  D#  D  D#  DA#(bis)
                          te alertas de mi

peligro en las sombras
C  D#  D  D#  DA#(bis)
                          te acercas a mi
C  A#/C   D#  D  C
y que vamos a hacer, ahora que volvió el amor
si entre tanta gente, estamos solos otra vez

ACA ES LO MISMO DEL PRINCIPIO PERO TERMINA ASI:

e|----------------------------------------------
B|----------------------------------------------
G|----------------------------------------------
D|---1---0---1---3---1-0---3--------0-----------
A|-3---3---3---3---3-----1------1-----1---1/3---
E|----------------------------3---3-----3-------


Por favor tengan en cuenta que esta es mi primer tablatura,
asi que corrijanla porque la verdad que esta buena la cancion
y merece ser bien  saludo para la banda del carque y
un beso para mi novia Jime.
Suggest correction
Give kudos to tab author, rate the tab!
1 2 3 4 5
comments
print report bad tab
guest
You may want to rate the tab now too:
select rating
Wanna post a correction for this tab? Suggest correction