Oops, an error
Loading. Please wait.

Pensar Y Separar Tab

16 views 3 this week
no commentswrite comment
1 2 3 4 5
3 more votes to show rating
add to favorites
launch autoscroll
font size
0
reset
how to read this tab
guitar tuner
Autoscroll
slow
fast
+/-
esc
set tempo
stop
INTRO SIN DISTORSION:
=====================
(hace algo asi)
E|----------------------------|
B|----------------------------|
G|--------------0-------------|
D|---4----4-------4---2h4---4-| repite varias veces
A|-----4----4-------4-----4---|
E|-2-----2----2---------------|

E|-------------------------|-------------------|
B|-------------------------|-------------------|
G|-------------------------|-------------------|
D|---4---------------------|---4---------------|
A|-2---2-5-2-5/7-7-7---7---|-2---2-5-2-5/7-7-7-|
E|-------------------5---5-|-------------------|


INTRO CON DISTORSION:
=====================

E|-------------------------|-------------------|
B|-------------------------|-------------------|
G|-------------------------|-------------------|
D|---4---------------------|---4---------------| repite 2 veces
A|-2---2-5-2-5/7-7-7---7---|-2---2-5-2-5/7-7-7-| y despues
E|-------------------5---5-|-------------------|

D|------------------------------------------|
A|-5--7--9----5----2------------------------|
E|-3--5--7----3----0----0h2-2-2-3p2-2-2-0h2-|
                            ...     ...


VERSOS: (B5-A5)
=======

B5          A5          B5          A5
Ya sabemos que todos queremos respirar.
B5          A5          B5          A5
Ya sabemos que todos queremos trabajar.
B5          A5            B5           A5
Ya sabemos que algo grande nos quiere matar
B5           G5           E5           F#5
con la idea de que sólo hay que vivir en paz.

Ya sabemos, la alegría puede ser un sueño amargo.
Libertad y ecología con el hambre a nuestro lado.
Ya sabemos que el control no es sólo militar.
Ya sabemos que el poder no pasa por gritar.


ESTRIBILLO:
===========

 B5    B5    B5     A5     /A#5/B5
Pensar, pensar, pensar y separar.
    G5            E5          F5          F#5
Por eso a un lado la mentira y a otro lado la verdad.
 B5  B5   B5   A5     /A#5/B5
Mirar, mirar, mirar y recordar
G5             E5             F5           F#5
que los pasos se nos pierden con el tiempo y el andar.


RIFF DEL FINAL:
===============
D|---------------------------|
A|-------------------------4-|
E|-0h2-2-2-3p2-2-2-0h2-2-2-2-|
       ...     ...     ...
Suggest correction
Give kudos to tab author, rate the tab!
1 2 3 4 5
comments
print report bad tab
guest
You may want to rate the tab now too:
select rating
Wanna post a correction for this tab? Suggest correction