Oops, an error
Loading. Please wait.

Pensares Tab

30 views 1 this week
no commentswrite comment
1 2 3 4 5
3 more votes to show rating
add to favorites
launch autoscroll
font size
0
reset
how to read this tab
guitar tuner
×
Best way to learn
"Pensares"
Autoscroll
slow
fast
+/-
esc
set tempo
stop
. = palm mute
b = estirar
r = release/volver la estirada
/ = slide
v = vibrato


INTRO: C#-A-G#-E-F# (x3) | TODO EN QUINTAS
====== B                 |


VERSOS: E'-G#-C#-B
=======

Toca los acordes de la forma del siguiente ejemplo:
       ..  ..
E:  G|---9---9-|
    D|--9---9--|
    A|-7---7---|
    E|---------|

       ..  ..
G#: e|---------|
    B|---4---4-|
    G|--5---5--|
    D|-6---6---|
    A|---------|
    E|---------|


Pensamiento aquerenciado
sal de tu senda una vez,
Riff 1
llévame por otros lados,
Riff 2
donde quieras; llévame.

Riff 1:
========
E|--------------------------------------|
B|-12--10--9--10--9-------9--7--5--7--5-|
G|--9---9--9---9--9-------6--6--6--6--6-|

Riff 2:
=======
E|---------------------------------------|
B|-12--10--9--10--9--7--9--7--5--7--5--4-|
G|--9---9--9---9--9--6--6--6--6--6--6--4-|

Quiero tu huella sin rastro,
quiero partir sin volver,
rumbo nuevo sin memoria,
atajos que no crucé.

E|----12---12-12-|
B|---------------|
G|-14b--14b------|

E         G#      C#         B
Llévame fuera de mis pensamientos
E          G#      C#  B
cielos que no imaginé.
E         G#      C#         B
Llévame fuera de mis pensamientos
E          G#      C#  B
pensares que no pensé.

(REPITE INTRO)

(VERSOS DE NUEVO)

(ESTRIBILLO)´

CAMBIO: B (X4)
=======

(tapando casi todas las notas)
E|-----------|
B|-----------|
G|---2---2---|
D|--4---2----|  x3
A|-2---0---2-|
E|-----------|

E|-----------------------|
B|-----------------------|
G|---2---2---2---2-------|
D|--4---2---4---2--------| repite varias veces
A|-2---0---2---0---2---0-|
E|-------------------2---|

PUNTEITO:
=========

E|---------------------------------------------------|
B|----------10--------------------10/12-10--12-10----|
G|-8-9-11-----9-8-9--8v--8-9-11-----------11-----11v-|
D|---------------------------------------------------|
A|---------------------------------------------------|
E|---------------------------------------------------|

E|-----------------------------------------------|
B|----------10--------------------10/12-10--12-v-|
G|-8-9-11v----9-8-9-8br---8-9-11----------11-----|
D|-----------------------------------------------|
A|-----------------------------------------------|
E|-----------------------------------------------|

(ESTRIBILLO VARIAS VECES)

E|-/9-9----------|
B|------9br-5-7v-|
Suggest correction
Give kudos to tab author, rate the tab!
1 2 3 4 5
comments
print report bad tab
guest
You may want to rate the tab now too:
select rating
Wanna post a correction for this tab? Suggest correction