Oops, an error
Loading. Please wait.

Por Verte Feliz Chords

20 views 1 this week
no commentswrite comment
1 2 3 4 5
3 more votes to show rating
add to favorites
launch autoscroll
font size
0
reset
transpose
0
reset
display chords
guitar tuner
×
Best way to learn
"Por Verte Feliz"
Autoscroll
slow
fast
+/-
esc
set tempo
stop
COLABORACIÓN DE SEBASTIÁN BURGUEÑO ?EL CARACO?

INTRO:

       Am      E           G      E         Am      E          G
6)--------------------1-------------   ---------------------1--------------------------------
5)--0----------------------5------2-   ---0--------------------5-----------------------------
4)--------2----2---------------------X3---------2----2---------------------------------------
3)--2----------------------4------1--  ---2--------------------4----------------------5 / 2--Am
2)--------1----0---------------------  ---------1----0----------------5---5 / 6--5-----------
1)-----------------------------------  ------------------------------------------------------

F                        A
Desnudarme en una cama gris
F               A
Solo por verte feliz
F                           A
Cuidar tu risa mi, abrigo invernal
F             E
Todo lo haría por ti

          INTRO

F                             A
Caminar contra el viento y saber
F                      A
Que todo el tiempo estaré
F                 A
De lentos paseos iré
F            E
Pensando tu nombre en Abril

INTRO

(F A)X 5     F

FINAL:

   Am     E                G      E
6)-------------------1---------------
5)--0----------------------5------2--
4)--------2----2----------------------
3)--2----------------------4------1--       Am
2)--------1----0----------------------
1)-------------------------------------
Suggest correction
Give kudos to tab author, rate the tab!
1 2 3 4 5
comments
print report bad tab
guest
You may want to rate the tab now too:
select rating
Wanna post a correction for this tab? Suggest correction