Oops, an error
Loading. Please wait.

Por Verte Feliz Tab

19 views 1 this week
no commentswrite comment
1 2 3 4 5
3 more votes to show rating
add to favorites
launch autoscroll
font size
0
reset
how to read this tab
guitar tuner
Autoscroll
slow
fast
+/-
esc
set tempo
stop
Hola les dejo acá la q' me parece
 es la version en vivo , q' una vez tocaron
en la sala zitarrosa...
si les interesa suena bastante parecida...

Toda esta parte es en Lam,
 vas a tener q' mover un poco
los dedos del medio y el meñiq':

(x2)
|---------------------------------|
|----1---1---------1---1----------|
|---2-----2-------2-----2---2-----|
|---------------------------------|
|-0----3----2/0------2------------|
|---------------1---------3-------|


|--------0-------------0----|
|----1----1--------1----1---|
|---2-------------2---------|
|---------------------------|
|-0----3----2/0------2------|
|---------------1---------3-|

                                               Rasg.y mut.
|--------0--------------0-----------0------------0-|
|----1----1----------1---1--------1--1----------1--|
|---2---------2-----2---------2--2-----2-------2---|
|---------------0/2----0----------------------2----|
|-0----3----2---------------3---2--0---3--0--0-----|
|--------------------------------------------------|

Más o menos escuchenla y le sacan bien los detalles...

FA Fa(x2)                   LAm
|-----------------------|-------------------0------|
|----1---1------1---1---|----1---1--1---1-----1---1|
|---2---2---2--2---2---2|---2---2--2---2--------2--|
|----------3----------3-|------2----------2--------|
|------3----------3-----|--0----------0------------|
|--1----------1---------|--------------------------|

Mientras canta hace Fa y Lam,
 y cuando deja de cantar,
 q' vuelve a hacer la jueguito ese de Lam,
 baja haciendo Fa Mi y luego se q'eda en Lam...


A las órdenes de cualquier tema de La Trampa,
 Bajos de NTVG, o de repente alguna batería q' quieran saber...
Ezeq'iel...


Q' lo disfrutes...!!!
Suggest correction
Give kudos to tab author, rate the tab!
1 2 3 4 5
comments
print report bad tab
guest
You may want to rate the tab now too:
select rating
Wanna post a correction for this tab? Suggest correction