Oops, an error
Loading. Please wait.

Puente De Estrellas Tab

36 views 1 this week
no commentswrite comment
1 2 3 4 5
3 more votes to show rating
add to favorites
launch autoscroll
font size
0
reset
how to read this tab
guitar tuner
Autoscroll
slow
fast
+/-
esc
set tempo
stop
PUENTE DE ESTRELLAS!
TEMON DE LA TRAMPA

        INTRO


   B     B/A
e|----------------------------|
B|----------------------------|
G|--4--4--4-4--4--4--4-4-4-4--|  X4
D|--4--4--4-4--4--4--4-4-4-4--|
A|--2--2--0-2--2--2--0-2-2-0--|
E|----------------------------|
 /

 Nota: cada vez q ponga B-B/A se
       repite la intro.


    VERSO:

 B
  Tendal de amores deja
  tu cola de cometa

                B    E
  tendal de amores

           D        B-B/A
  Varones sin respirar


 VERSO


  ESTRIBILLO:

G              E          B-B/A
 Puente de estrellas tu nombre

G         E    B-B/A (*)
 todo ilumina...


  (*)

  B      B/A
e|-----------------|
B|-----------------|
G|--4--4--4-4--4---|
D|--4--4--4-4--4---|
A|--2--2--0-2--2---|
E|-----------------|
 /


 VERSO X2

 EN 1:20 EN EL PRIMER VERSO
 DESPUES DEL PRIMER ESTRIBO,
 HACE ESTO:

el pecho de un soñadooo.(aca arranca).r

e|----7-----------------------|
B|-/7---10-9-7---9b10-10r9-7--|
G|-------------9--------------|
D|----------------------------|
A|----------------------------|
E|----------------------------|
 /


Y via láctea espera... (ACA)

e|-------------------------|
B|-9b10r9-7-10b12----------|
G|-------------------------|
D|-------------------------|
A|-------------------------|
E|-------------------------|
 /

Sabe q estas afue.(ACA).ra

e|-------------------------|
B|-10b12r10-7-10-7h10p7----|
G|-------------------------|
D|-------------------------|
A|-------------------------|
E|-------------------------|
 /

Via lacte.(ACA).a ....

e|----------------------|
B|---------------10-----|
G|-9b11r9-7-9b11--------|
D|----------------------|
A|----------------------|
E|----------------------|
 /

 ESTRIBILLO (**)


  (**) Termina asi:

  B      B/A
e|-------------------|
B|-------------------|
G|--4--4--4-4--4-4-4-|
D|--4--4--4-4--4-4-4-|
A|--2--2--0-2--2-2-2-|
E|-------------------|
 /

 CORTE:


Lenguas Viboreando en el camino


e|-----------------------------------------|
B|-----------------------------------------|
G|----7---6---6----------------------------|
D|--7---7---7---7-9-999---------------9----|
A|----------------9-999-----5---5-7/9---9--|
E|----------------7-777-5-7---7------------|
 /

Lenguas viboreando donde vas

e|------------------------------------------------|
B|---------------------------------------10-------|
G|----7-----------------------7---7-9b11____11r9--|
D|--7---7---9---9---9-999-7-9---9-----------------|
A|--------7---7---7-9-999-------------------------|
E|------------------7-777-------------------------|
 /

Lenguas Viboreando en el camino

e|-----------------------------------------|
B|-----------------------------------------|
G|----7---6---6----------------------------|
D|--7---7---7---7-9-999---------------9----|
A|----------------9-999-----5---5-7/9---9--|
E|----------------7-777-5-7---7------------|
 /

Lenguas viboreando donde vas

e|----------------------------|
B|----------------------------|
G|----7-----------------------|
D|--7---7---9---9---9999...---|
A|--------7---7---7-9999...---|
E|------------------7777...---|
 /


e|------------------------------------|
B|-----------------------------/10-9--|
G|----------/9-8----------/9-8--------|
D|-----7-------------7----------------|
A|--/9----9-------/9----9-------------|
E|------------------------------------|
 /


e|------------/12-11-------------/12-11--/17-16--|
B|------10-----------------10--------------------|
G|-9/11----11---------9/11----11-----------------|
D|-----------------------------------------------|
A|-----------------------------------------------|
E|-----------------------------------------------|
 /


e|---7-----------------------------------------------------------|
B|-7---10-7h10p7---7-10-7h10p7---7-10-7h10p7---7-10-7h10p7---7---|
G|---------------9-------------9-------------9-------------9---9-|
D|---------------------------------------------------------------|
A|---------------------------------------------------------------|
E|---------------------------------------------------------------|
 /


e|-------------------------------12------12-12------12-----------------|
B|------------------------------------------------------------7-9b10r9-|
G|-7-9b(11-11-11-11-11)r9-7-9b11----9b11-------9b11----9b11r9----------|
D|---------------------------------------------------------------------|
A|---------------------------------------------------------------------|
E|---------------------------------------------------------------------|
 /


e|------------------------------------------------------|
B|-7-10b(12-12)r10-9-7----------------------------------|
G|---------------------9b11r9-7-8-------7-8-7---7-------|
D|--------------------------------9-7-9-------9---9/0---|
A|------------------------------------------------------|
E|------------------------------------------------------|
 /

 ESTRIBILLO X3

 INTRO


 termina con este punteito en |B|


e|------------------------------------------------------12-12b14r12-10----|
B|-10b(12--12)r10-9-10-9h10p9----9---------10b12-10b12-----------------12-|
G|----------------------------11---11-9-----------------------------------|
D|--------------------------------------12--------------------------------|
A|------------------------------------------------------------------------|
E|------------------------------------------------------------------------|
 /


 LA TRAMPA LOCO!!!
Suggest correction
Give kudos to tab author, rate the tab!
1 2 3 4 5
comments
print report bad tab
guest
You may want to rate the tab now too:
select rating
Wanna post a correction for this tab? Suggest correction