Oops, an error
Loading. Please wait.

Santa Rosa Tab

27 views 1 this week
no commentswrite comment
1 2 3 4 5
3 more votes to show rating
add to favorites
launch autoscroll
font size
0
reset
how to read this tab
guitar tuner
Autoscroll
slow
fast
+/-
esc
set tempo
stop
Help us to improve Ultimate-Guitar.com Take our survey!
×
Intro: Em-G-Em-G-Em-G-Em-G


E  ------------------------------  ------------------------
B  ------------------------------  ------------------------
G  --------------1-----1--2--1---  ------------------------
D  --0--2--2--2-----2-----------2  --0--2--2--2--0-----0--2
A  ------------------------------  -----------------2------
E  ------------------------------  ------------------------

E  ------------------------------  --------------------------
B  ------------------------------  --------------------------
G  --------------1-----1--2--1---  --------------------------
D  --0--2--2--2-----2-----------2  --2--0-----0--------------
A  ------------------------------  --------2-----2--0-----0--
E  ------------------------------  --------------------4----0

Te vas, no aguantás éste lugar...

E  ----------0---------  -----------
B  -----0----------0---  -----0----0
G  --------------------  -----------
D  --2-----2----2-----2  --2----2---
A  --------------------  -----------
E  --------------------  -----------


Te vas, hasta cuándo no sabés...

E  ---------------------------------------
B  --------0--2--3--2--0-----------------0
G  --1--2-----------------2--1--2--1------
D  -----------------------------------0---
A  ---------------------------------------
E  ---------------------------------------


Cuando llegues no te olvídes...


E  --------------
B  --------------
G  --4--6--7-----
D  -----------7--


... como en el mapa un puñal

E  --3--5--5--5--3--5--5--3--
B  --------------------------

E  --3--5--5--5--3--5--5--5--3--5--5--3
B  ------------------------------------


E  -------------- ---------------------------------------------------
B  --5--5--5--5-- --5--3--------3--------3---------------------------
G  -------------- --------4--2-----4--2-----2--4--2--4--4--2--1--2---
D  -------------- --------------------------------------------------2


Te vas, no podés siempre perder...


E  ----------0---------  -----------
B  -----0----------0---  -----0----0
G  --------------------  -----------
D  --2-----2----2-----2  --2----2---
A  --------------------  -----------
E  --------------------  -----------


Te vas, no te aferra nada más...

E  ---------------------------------------
B  --------0--2--3--2--0-----------------0
G  --1--2-----------------2--1--2--1------
D  -----------------------------------0---
A  ---------------------------------------
E  ---------------------------------------


Cuando pases Santa Rosa...

E  --------------
B  --------------
G  --4--6--7-----
D  -----------7--


... como en el mapa un puñal

E  --3--5--5--5--3--5--5--3--
B  --------------------------

E  --3--5--5--5--3--5--5--5--3--5--5--3
B  ------------------------------------

E  -------------------------------------------------
B  --3-5-3-5-3-5-3-5-3-5-3-5-3-5-3-5-3-5-3-5-3-5-3-5

E  --7--5-----------5--5--10--7-----------
B  --------8--5--8---------------10--8----
G  -------------------------------------9-

E  --10-12-12-10-12-12-10-12-12-10-12-12
B  -------------------------------------
G  -------------------------------------


E  --10-12-10-10-  12--10----10-------------10-10---------
B  --------------  -------12----12-10-12-12-------10-8----
G  --------------  ------------------------------------9-9

E  -------------------  ------------7-7--------
B  -------------------  --8-10-8-10-----10-8---
G  --9-7-7-7-9-9-9-9-9  ---------------------9-

E  ---------------------------------------10-7------7-------
B  --10-8-10-8---8-10-8---8-10-12-10-8-10------10-8---10-8--
G  ------------9--------9----------------------------------9

...o en el Uruguay...

E  ------------------------------  ------------------------
B  ------------------------------  ------------------------
G  --------------1-----1--2--1---  ------------------------
D  --0--2--2--2-----2-----------2  --0--2--2--2--0-----0--2
A  ------------------------------  -----------------2------
E  ------------------------------  ------------------------

E  ------------------------------  --------------------------
B  ------------------------------  --------------------------
G  --------------1-----1--2--1---  --------------------------
D  --0--2--2--2-----2-----------2  --2--0-----0--------------
A  ------------------------------  --------2-----2--0-----0--
E  ------------------------------  --------------------4----0


Otro temazo, que dedico esta vez a nati.
Aguante la trampa y el rock uruguayo!!!!!
Suggest correction
Give kudos to tab author, rate the tab!
1 2 3 4 5
comments
print report bad tab
guest
You may want to rate the tab now too:
select rating
Wanna post a correction for this tab? Suggest correction