Oops, an error
Loading. Please wait.

Si Te Vas Tab

50 views 1 this week
no commentswrite comment
1 2 3 4 5
3 more votes to show rating
add to favorites
×
Save as Personal and add changes to this tab that will be seen only by you. Learn more ›
×
You can save this tab as Personal to edit and correct it or add notes. All changes will be seen only by you. Learn more »
save as personal
new!
launch autoscroll
font size
0
reset
how to read this tab
guitar tuner
Autoscroll
slow
fast
+/-
esc
set tempo
stop
Intro:


E  -----------0/1-------------------0/1-------------------0/1--------
B  -----3---3-----3-----------3---3-----3-----------3---3-----3------
G  ---2---2---------2---2---2---2---------2---2---2---2---------2----
D  -0-----------------0----------------------------------------------
A  -----------------------3-----------------3---2-----------------2-1
E  ------------------------------------------------------------------

E  -----0-----------0-
B  ---3---3-------2---
G  -2-----------0-----
D  -----------2-------
A  ---------0---------
E  -------------------


1)   Si algún día volviera a nacer, te quiero

E  ---1-1---1---1-1---0---0-----3--3---3---------0-----------0
B  ---3-3---3---3-3---1---1-----3--3---3-------3---3-------2--
G  ---2-2---2---2-2---2---2-----3--3---3-----2-----------0----
D  -0-----0---0---------0------------5-----------------2------
A  -----------------0-------0--------------1---------0--------
E  ---------------------------3----------3--------------------


Si algún día te viera caer, me muero

2) Y si te vas primero, di que vendrás, te espero

E  -----------0/1-------------------0/1-------------------0/1--------
B  -----3---3-----3-----------3---3-----3-----------3---3-----3------
G  ---2---2---------2---2---2---2---------2---2---2---2---------2----
D  -0-----------------0----------------------------------------------
A  -----------------------3-----------------3---2-----------------2-1
E  ------------------------------------------------------------------

E -----0-----------0-
B ---3---3-------2---
G -2-----------0-----
D -----------2-------
A ---------0---------
E -------------------


1) Si me besas al amanecer, te alejas
si me besas al atardecer, te acercas
2) y si te vas, primero
di que vendrás, te espero

E  ---1-1---1---1-1---0---0-----3--3---3---------0-----------0
B  ---3-3---3---3-3---1---1-----3--3---3-------3---3-------2--
G  ---2-2---2---2-2---2---2-----3--3---3-----2-----------0----
D  -0-----0---0---------0------------5-----------------2------  x2
A  -----------------0-------0--------------1---------0--------
E  ---------------------------3----------3--------------------

E ---1-1---1----3-3---3---1-1---1-------0-----------0-
B ---3-3---3----3-3---3---3-3---3-----3---3-------2---
G ---2-2---2----3-3---3---2-2---2---2-----------0-----
D -0-----0----------5---0-----0---------------2-------
A --------------------------------1---------0---------
E ------------3---------------------------------------


A dónde voy con mi silencio, a dónde voy, silbo y ya no pienso

E -3-333-3-333--5-555-5-555--3-333-3-333-5-5
B -3-333-3-333--6-666-6-666--3-333-3-333-5-6
G -3-333-3-333--7-777-7-777--3-333-3-333-6-7
D -5-555-5-555--7-777-7-777--5-555-5-555-7-7
A -5-555-5-555--5-555-5-555--5-555-5-555-7-5
E -3-333-3-333--5-555-5-555--3-333-3-333-5-5

E  -----------0/1-------------------0/1-------------------0/1--------
B  -----3---3-----3-----------3---3-----3-----------3---3-----3------
G  ---2---2---------2---2---2---2---------2---2---2---2---------2----
D  -0-----------------0----------------------------------------------
A  -----------------------3-----------------3---2-----------------2-1
E  ------------------------------------------------------------------

E -----0-----------0-
B ---3---3-------2---
G -2-----------0-----
D -----------2-------
A ---------0---------
E -------------------


1) Si algún día quisiera no estar, me escondo
si algún día pudieras buscar tan hondo
2) y si te vas primero
di que vendrás, te espero

(ahora pongo primero la segunda guitarra y después la primera)

primera:
E  ---1-1---1---1-1---0---0-----3--3---3---------0-----------0
B  ---3-3---3---3-3---1---1-----3--3---3-------3---3-------2--
G  ---2-2---2---2-2---2---2-----3--3---3-----2-----------0----
D  -0-----0---0---------0------------5-----------------2------  x2
A  -----------------0-------0--------------1---------0--------
E  ---------------------------3----------3--------------------

E ---1-1---1----3-3---3---1-1---1-------0-----------0-
B ---3-3---3----3-3---3---3-3---3-----3---3-------2---
G ---2-2---2----3-3---3---2-2---2---2-----------0-----
D -0-----0----------5---0-----0---------------2-------
A --------------------------------1---------0---------
E ------------3---------------------------------------

segunda:

E  -0-1-0--0-1-0-1-0--0-1-0-1-0-------     -5-3--------------0-1-0-1-0-----
B  -----------------------------3-2---     -----6-5-4--6-4-3-----------3-2-
G  -----------------------------------     --------------------------------
D  ----------------------------------- x2  --------------------------------
A  -----------------------------------     --------------------------------
E  -----------------------------------     --------------------------------


A dónde voy con mi silencio, a dónde voy, silbo y ya no pienso

E -3-333-3-333--5-555-5-555--3-333-3-333-5-5
B -3-333-3-333--6-666-6-666--3-333-3-333-5-6
G -3-333-3-333--7-777-7-777--3-333-3-333-6-7
D -5-555-5-555--7-777-7-777--5-555-5-555-7-7
A -5-555-5-555--5-555-5-555--5-555-5-555-7-5
E -3-333-3-333--5-555-5-555--3-333-3-333-5-5
Suggest correction
Give kudos to tab author, rate the tab!
1 2 3 4 5
comments
print report bad tab
guest
Wanna post a correction for this tab? Suggest correction