Oops, an error
Loading. Please wait.

Sin Piel Tab

16 views 1 this week
no commentswrite comment
1 2 3 4 5
3 more votes to show rating
add to favorites
launch autoscroll
font size
0
reset
how to read this tab
guitar tuner
×
Best way to learn
"Sin Piel"
Autoscroll
slow
fast
+/-
esc
set tempo
stop
Aca les mando el estribillo ,el solo y
los versos de esta cancion

VERSOS (TEMA):
================

e|-7---10---7---9---7---10-:-7---9-|
B|---7--------7-------7----:---7---|
G|-------------------------:-------|
D|-------------------------:-------|
A|-------------------------:-------|
E|-------------------------:-------|

                           :-7---9-10-9-|
                           :---7--------|
                           :------------|
                           :------------|
                           :------------|
                           :------------|


ESTRIBILLO:
===========

e|------------------------------------------------------------|
B|------------------------------------------------------------|
G|---4---7----4---7-6----4---7----4---7-6----4---7----4---7-6-|
D|-4---4----4---4------3---3----3---3------5---5----5---5-----|
A|------------------------------------------------------------|
E|------------------------------------------------------------|

e|------------------------------|
B|------------------------------|
G|---3----6----9----6----3----6-|
D|-2----5----8----5----2----5---|
A|------------------------------|
E|------------------------------|


SOLO (SOBRE TEMA):
==================

e|-7-5-----------------|-----------------|
B|-----7--7s8s7--------|-----------------|
G|---------------9-7-9-|-797-6-7-6s7-9-7-|
D|---------------------|-----------------|
A|---------------------|-----------------|
E|---------------------|-----------------|

e|----------------------------------------|---------------------|
B|----------------------------------------|---------------------|
G|---------------12s11-9---------------11-|---------6-----6-7s9-|
D|--------8-9-11---------12-11-9-11-12----|-----4-7---8-9-------|
A|-x79s10---------------------------------|-x45-----------------|
E|----------------------------------------|---------------------|

e|-10s7------------|-----------------------------|
B|------8-10-------|-----------------------------|
G|-----------9s7s9-|-----------------------------|
D|-----------------|-------8-9-11------8-9-10-12-|
A|-----------------|-79s10--------9-10-----------|
E|-----------------|-----------------------------|

e|------------------------------------|
B|------------------------------------|
G|-----------------11---------12s9-11-|
D|-------8-9-11s12----12s9-11---------|
A|-79s10------------------------------|
E|------------------------------------|
Suggest correction
Give kudos to tab author, rate the tab!
1 2 3 4 5
comments
print report bad tab
guest
You may want to rate the tab now too:
select rating
Wanna post a correction for this tab? Suggest correction