Oops, an error
Loading. Please wait.

Soledad Tab

version 1
version 1

Whole song

16 views 1 this week
no commentswrite comment
1 2 3 4 5
3 more votes to show rating
add to favorites
launch autoscroll
font size
0
reset
how to read this tab
guitar tuner
×
Best way to learn
"Soledad"
Autoscroll
slow
fast
+/-
esc
set tempo
stop
Acà va un temaso de La Trampa

Intro: B


Verso 1:
B              A   G   A
Nada te ha desfigurado
B              C#
ni las sombras que te apretan
G            Em
ni las luces que te ensanchan
G          Em        F#
con cada nueva estaciòn.

Verso 2:
A                     G
Ni siquiera los mil vientres
A                  G
que mi mente te agregò
A             A*    B
aùn tienes la cara blanca
A               G
reflejando el fuego azul
A             A*     B
Ven a mi cuerpo y descansa
A             G
todos mis sueños te doy.

(Con base de Verso 1)
Hace tiempo nuevas vidas
envejecen nuestra historia
nos van perdiendo y la muerte
parece tener razòn.

(Con base de verso 2)
Arde la sangre en mis puños
como tu en el corazòn
te sostienen todavìa
las paredes de alquiler
casi rojas casi mias
baja a mi cama otra vez

Solo:

G---7-9-9-9-7-9-7--9--9------7-9---4-6-6--4--
D--9-----------------------------------------

B-----------------------------------7-10-10-10-10-10-
G-------7---------9-------7--9-9-9-7-----------------
D---7-9-------7-9-9----7-9---------------------------
A--9-------7/9------7/9------------------------------

E----------------------------------------------------
B---7-10-10----10-12-12--10-12----15-17-17-17-15-17--
G------------11----------------s16-------------------

E----------------19----
B-----15-17-17-15------
G---16-----------------

A
Sobre el eco de los años
sigo escuchando tu voz
y en los muros de mi hastìo
yo renuevo la ilusiòn
B                A
sobre el escalòn de la muerte
G           A
escribo tu nombre
B                   A
para terminarlo al otro lado
  G
y no perdernos.

A              G
que si tu te olvidas
A           G
yo te lo recuerdo
A                 B
querida compañera mìa
A        G
querida Soledad.


A*=  B--10----
     G--9-----
     D--7-----

Por cualquier duda no duden en escribir
Aguante el Rock!!!
Suggest correction
Give kudos to tab author, rate the tab!
1 2 3 4 5
comments
print report bad tab
guest
You may want to rate the tab now too:
select rating
Wanna post a correction for this tab? Suggest correction