Oops, an error
Loading. Please wait.

Soledad Tab

version 2
version 2

Whole song

6 views 1 this week
no commentswrite comment
1 2 3 4 5
3 more votes to show rating
add to favorites
launch autoscroll
font size
0
reset
how to read this tab
guitar tuner
Autoscroll
slow
fast
+/-
esc
set tempo
stop
Help us to improve Ultimate-Guitar.com Take our survey!
×
B
VERSO 1:
B              A   G
Nada te ha desfigurado
B              C#
ni las sombras que te apretan
G            Em
ni las luces que te ensanchan
G          Em        F#
con cada nueva estaciòn.

VERSO 2:
A                     G
Ni siquiera los mil vientres
A                  G
que mi mente te agregò
A             A    B
aùn tienes la cara blanca
A               B
reflejando el fuego azul
A             A     B
Ven a mi cuerpo y descansa
A             G
todos mis sueños te doy.

(Verso 1)
Hace tiempo nuevas vidas
envejecen nuestra historia
nos van perdiendo y la muerte
parece tener razòn.

(verso 2)
Arde la sangre en mis puños
como tu en el corazòn
te sostienen todavìa
las paredes de alquiler
casi rojas casi mias
baja a mi cama otra vez

Solo:

G---7-9-11-9-7-9-11--7-9-----------6-7/6--4-4-
D--9---------------------------9--------------

B-----------------------------------------
G-------7---------9-------7--11-11-11-9-11-
D---7-9-------7-9-----7-9------------------
A--9-------7/9------9----------------------

B--12-10---10-10-10-10-------
G--------9-------------------

E-----------------------------------------------------------19
B---10-10--10-15-10-12---10-12-15-19-15-17--12-15-17-19-17-15---
G-9-------9---------------------------------------------

G
Sobre el eco de los años
sigo escuchando tu voz
y en los muros de mi hastìo
yo renuevo la ilusiòn
B                A
sobre el escalòn de la muerte
G           F#
escribo tu nombre
B                   A
para terminarlo al otro lado
  G        F#
y no perdernos.

A              G
que si tu te olvidas
A           G
yo te lo recuerdo
A                 B
querida compañera mìa
A        B (SE REPITE LA FRASE QUERIDA COMPAÑERA.. Y TERMINA EN G)
querida Soledad.


Es la primer tablatura que subo espero que este bien
Si tienen alguna duda envienme un correo
Suggest correction
Give kudos to tab author, rate the tab!
1 2 3 4 5
comments
print report bad tab
guest
You may want to rate the tab now too:
select rating
Wanna post a correction for this tab? Suggest correction