Oops, an error
Loading. Please wait.

Veneno Chords

13 views 1 this week
no commentswrite comment
1 2 3 4 5
3 more votes to show rating
add to favorites
launch autoscroll
font size
0
reset
transpose
0
reset
display chords
guitar tuner
×
Best way to learn
"Veneno"
Autoscroll
slow
fast
+/-
esc
set tempo
stop
intro
Riff 1 x 4 

D-----------------------------------------------------
A----10----(0)-----9----(0)----7-----7----7----7-----7
E-----8----(0)-----7----(0)----5-----5----5----5-----5

Riff 2 x2
Veneno quisiera haber sido Para asi en tu pecho clavarte un puñal 
D--------------------------------------------------------------
A----10-----------9------------------------8------------------7
E-----8-----------7------------------------6------------------5

  A      
Sabado en la tarde bebiendo cerveza
  
Espero la noche y espero que vengas
  D
Salgo a la calle espero sorpresas

Espero que vengas pero nunca llegas


 A
Que triste agonia que triste es mi vida

Espero que cambie bebiendo tequila
  D
Por que si no cambia ya no lo aguantaria

Y si tu no llegas me suicidaria

  A
Ya en la tocada bebiendo tequila 

Mis amigos bailan y yo no te veia
  D
Pienso que tu amor fue pura mentira

Y todos tus besos puras fantasias

  A
Toda la bebida me ha hecho pensar

Que todo esto me pasa por no reflexionar
  D
Que el amor no es lo que dicen

Siempre sufriras

Y si tu no me amas te arrepentiras


Riff 2 x2
Veneno quisiera haber sido Para asi en tu pecho clavarte un puñal 
D--------------------------------------------------------------
A----10-----------9------------------------8------------------7
E-----8-----------7------------------------6------------------5


  A
Ahora me doy cuenta del tiempo que perdi

Y todo lo que pude haber hecho sin ti

  D
Y no me arrepiento pues algo aprendi

Y es que sin tu amor yo puedo vivir


Y NO VUELVES PORQUE NO QUIERES 
SI NO PORQUE NO TIENES PAL PASAJE


A
Domingo de mañana me mata la resaca

He amanecido en la acera de mi casa
  D
Siento que me pierdo  siento que me muero

Quise hacermne el fuerte no mas borracho puedo

  A
Escuchalo chiquita no me he de olvidar

Ese maldito vicio me ha de acabar 
  D
Sale caro el trago no te puedo sacar

Y todas estas crudas las tendras que pagar

Riff 2 x2
Veneno quisiera haber sido Para asi en tu pecho clavarte un puñal 
D--------------------------------------------------------------
A----10-----------9------------------------8------------------7
E-----8-----------7------------------------6------------------5


esta es mi primer transcripcion y se la dedico a la banda de 
los skardex de la prepa fresno y a mi amiga bere
Suggest correction
Give kudos to tab author, rate the tab!
1 2 3 4 5
comments
print report bad tab
guest
You may want to rate the tab now too:
select rating
Wanna post a correction for this tab? Suggest correction