Oops, an error
Loading. Please wait.

Dios Es Asi Tab

40 views 1 this week
no commentswrite comment
1 2 3 4 5
3 more votes to show rating
add to favorites
launch autoscroll
font size
0
reset
how to read this tab
guitar tuner
×
Best way to learn
"Dios Es Asi"
Autoscroll
slow
fast
+/-
esc
set tempo
stop
Intro

Estuve buscando esta tab y no la encontre asi que la subi

E||----------------------|-----------------------|----------------------|
B||----------------------|-----------------------|----------------------|
G||----------------------|-----------------------|----------------------|
D||----------------------|-----------------------|----------------------|
A||-0----0-2-4-2-0---2---|-----0-2-0-------------|-0----0-2-4-2-0---2---|
E||----------------5---2-|-0-2-------------------|----------------5---2-


E||----------------------|-----------------------|----------------------|
B||----------------------|-----------------------|----------------------|
G||----------------------|-----------------------|----------------------|
D||----------------------|-----------------------|----------------------|
A||-0----0-2-4-2-0---2---|-----0-2-0-------------|-0----0-2-4-2-0---2---|
E||----------------5---2-|-0-2-------------------|----------------5---2-


Cualquie correccion me avisan
con amor para la Flor de mi Inspiracion Oty.
Atn. Mizraim S.
Suggest correction
Give kudos to tab author, rate the tab!
1 2 3 4 5
comments
print report bad tab
guest
You may want to rate the tab now too:
select rating
Wanna post a correction for this tab? Suggest correction