Oops, an error
Loading. Please wait.

Hijo Prodigo Tab

4 views 1 this week
no commentswrite comment
1 2 3 4 5
3 more votes to show rating
add to favorites
launch autoscroll
font size
0
reset
how to read this tab
guitar tuner
×
Best way to learn
"Hijo Prodigo"
Autoscroll
slow
fast
+/-
esc
set tempo
stop
hola que Dios les bendiga!!
hace tiempo que no colaboraba con canciones pero aqui estoy de
de vuelta gracias a Dios.
aqui les va una de mis favoritas,espero les guste.
va incluido la tablatura de guitarra con los arreglos de wiso
aponte.
 Intro:

 Am            Am/G        Am/F#      Dadd2

E-------------------------------------0------------------
B-----0-1----------0-1----------0-1---3------------------
G---2-2-2--------2-2-2--------2-2-2---2------------------
D--2--------2---2-------2----2--------0-----0h2-5-2p0----
A-0---------------------------------------------------3-0
E--------------3-----------2-----------------------------

Verso 1:
Am            Am/G      Am/F#     Dadd2       riff 1-ver Abajo
  Me alegra tanto verte     y de oir tu voz
Am            Am/G        Am/F#        Dadd2
  Que hayas vuelto a casa     en busca de calor
Cadd9                      D       D D D D
  Abrazame, descansa y  olvida lo pasado

  Coro:
         Am         G/B  C               D         Fmaj7
  Te busque   te extra---ñe   por todos lados te llame
                Am         G/B  C           D        Fmaj7
  Has vuelto herido,  te sana---re,  ropa nueva te dare
             Am      G/B C         D           Fmaj7
  Anillo al dedo te pondre,  y calzado a tus pies
            Am   G/B  C               D           Fmaj7
  Seras mi hijo otra vez,  y en mi regazo te cuidare

Intermedio

Guitarra 1. INTRO
Guitarra 2:

 Am    Am/G   Am/F# Dadd2 Am                     riff 1
E----------------------------5-7-8------------------[-3------]
B----0-1--3-5-3-------------------8----------3/5-[3/5--5s3-1-]
G-2-2-------------------------------4-5-7-4-5--------[------2]

Verso 2
Ya no tendras mas frio, no extrañaras mi voz
Pues siempre habra abundancia,no faltara el amor
Abrazame,descanza y olvida el pasado

Coro
Solo:
  Am      G         D/F# F E  Am       G         D/F#   F  G
G---2-4-5-0----2-4-5-------------2-4-5-0---2-4-5---
D--------------------4----------------------------4

Coro

Outro: intro
Final: Am

cualquier duda o comentario please escribanme.
saludos a toda la gente que me ha escrito.y a mi people de
Suggest correction
Give kudos to tab author, rate the tab!
1 2 3 4 5
comments
print report bad tab
guest
You may want to rate the tab now too:
select rating
Wanna post a correction for this tab? Suggest correction