Oops, an error
Loading. Please wait.

Cumbia De Sal Bass Tab

31 views 3 this week
no commentswrite comment
1 2 3 4 5
3 more votes to show rating
add to favorites
launch autoscroll
font size
0
reset
guitar tuner
Autoscroll
slow
fast
+/-
esc
set tempo
stop
Help us to improve Ultimate-Guitar.com Take our survey!
×
KE HAY RAZA
AHI LES VA ESTA ROLIA
ESTA BIEN PICHONA


G-----------------------
D-----------------------
A-----7----7----7----7--
E-5-8--5-8--5-8--5-8--5-

LUEGO METE 3ERA
asi: NOMAS CHEQUEN LOS TIEMPOS, AHI LE METEN.


G----------------
D----7----7----7-
A-5-8--5-8--5-8--
E----------------


Y LUEGO METE ESTO:


G-------------------------
D---------7-10---6-9--6-9-
A----7--8------7-----7---- x2 
E-5-8---------------------

YA ESTA TODO LO QUE METE
SOLO DE QUE CHEQUEN LOS TIEMPOS Y VEAN DONDE VA
ESKE DA WEBA PONER EL TIEMPO.

  TAB HECHA POR CHuY  -Jesús Treviño-
   chuy_nomas@    PARA MAILS
   greendayok@    PARA MSN
Suggest correction
Give kudos to tab author, rate the tab!
1 2 3 4 5
comments
print report bad tab
guest
You may want to rate the tab now too:
select rating
Wanna post a correction for this tab? Suggest correction