Oops, an error
Loading. Please wait.

Elsa Tab

28 views 1 this week
no commentswrite comment
1 2 3 4 5
3 more votes to show rating
add to favorites
launch autoscroll
font size
0
reset
how to read this tab
guitar tuner
Autoscroll
slow
fast
+/-
esc
set tempo
stop
Help us to improve Ultimate-Guitar.com Take our survey!
×
Obviamente, con transporte en 5° traste

Intro

------------------------------|
------------------------------|
------------------------------|
-------7-666-11-9-11-9-11-----|
---999--------------------999-|
-9----------------------------|


------------------------------|
------------------------------|
------------------------------|
-------7-666-11-9-11-9-11-----|
---999--------------------9---|
-9----------------------------|

------------------------------|
------------------------------|
------------------------------|
-------7-666-11-9-11-9-11-----|
---999--------------------999-|
-9----------------------------|

------------------------------|
------------------------------|
------------------------------|
-------7-666-11-9-11-9-11-----|
---999--------------------9---|
-9----------------------------|


Uuuhh uhh ahh uuhh uhh ahhh

-----------------------------|
-----------------------------|
-----------------------------|
-----7-11-7-1111-12-11-12-11-|
-999-------------------------|
-----------------------------|

-----------------------------|
-----------------------------|
-----------------------------|
-----7-11-7-1111-14-13-12-11-|
-999-------------------------|
-----------------------------|

---------------------------|
---------------------------|
---------------------------|
-----7-11-7-1111-----------|
-999-----------------------|
-----------------10-9-10-9-|

-------------------|
-------------------|
-------------------|
-------------------|
--------11-9-7-9---|
-121212----------9-|


Bueno suegrita, esta cancion es para usted, la quiero mucho,
espero q ande bien, meli te super amo, igu vos tb!
cualquier consulta...
Suggest correction
Give kudos to tab author, rate the tab!
1 2 3 4 5
comments
print report bad tab
guest
You may want to rate the tab now too:
select rating
Wanna post a correction for this tab? Suggest correction