Oops, an error
Loading. Please wait.

Hombre Lobo En Paris Bass Tab

version 1
version 1

Whole song

Interactive

35,667 views 36 this week
no commentswrite comment
1 2 3 4 5
x 3
add to favorites
launch autoscroll
font size
0
reset
guitar tuner
Autoscroll
slow
fast
+/-
esc
set tempo
stop
Help us to improve Ultimate-Guitar.com Take our survey!
×
Author
This is my first bass tab i hope u guys like it!

standard tuning


[Intro]

G|-------------------|-------------------|
D|-------------------|-------------------|
A|-------------------|4-4-4-4-4-4-4-4-4-4|
E|5-5-5-5-5-5h7-5-7-5|-------------------|

G|-------------------|---------------|
D|-------------------|------------4--|
A|-------------------|4-4-4-4-4-4---4|
E|5-5-5-5-5-5h7-5-7-5|---------------|

G|-------------------|---------------|
D|-------------------|------------4-4|
A|-------------------|4-4-4-4-4-4----|
E|5-5-5-5-5-5h7-5-7-5|---------------|


[Verse 1]
G|-------------------|-----------------|
D|-------------------|--------6/7-7-6-7|
A|-------------------|4-4-4-4----------|
E|5-5-5-5-5-5h7-5-7-5|-----------------|
  cae la noche....

  2da.[Verse]
G|-------------------|-----------------|
D|-------------------|--------4-6/7-6h7|
A|-------------------|4-4-4-4----------|
E|5-5-5-5-5-5h7-5-7-5|-----------------|
    en el dia....

  3ra.[Verse]
G|-------------------|-----------------|
D|-------------------|--------4-6/7-6h7|
A|-------------------|4-4-4-4----------|
E|5-5-5-5-5-5h7-5-7-5|-----------------|
  como en sueño...

  4ta.[Verse]
G|-------------------|-------------------|
D|-------------------|-------------------|
A|-------------------|4-4-4-4-4-4-4-4-4-4|
E|5-5-5-5-5-5h7-5-7-5|-------------------|
   la fortuna se...

  entra un puente
G|-------------------|-------------------|-------------------|
D|--------------2----|--------------4----|-------------------|
A|2-2-2-2-2-2-4---4-2|4-4-4-4-4-4-7---7-4|2-2-2-2-2-2-3-2-3-2|
E|-------------------|-------------------|-------------------|
 ja ja sorprendido...  el lobo esta....    y es mordido...

G|-------------|
D|-------------|
A|------4/7-7-7|
E|1-1-1--------|
 por el mago...

  [Chorus]
G|-------------------|-----------------|
D|-------------------|--------6/7-7-6-7|
A|-------------------|4-4-4-4----------|
E|5-5-5-5-5-5h7-5-7-5|-----------------|
  la luna...

G|-------------------|---------------|
D|-------------------|------------4--|
A|-------------------|4-4-4-4-4-4---4|
E|5-5-5-5-5-5h7-5-7-5|---------------|
  a trasfor...

  5ta.[Verse]
G|-------------------|-----------------|
D|-------------------|--------6/7-7-6-7|
A|-------------------|4-4-4-4----------|
E|5-5-5-5-5-5h7-5-7-5|-----------------|
  rueda....

  6ta.[Verse]
G|-------------------|-------------------|
D|-------------------|-------------------|
A|-------------------|4-4-4-4-4-4-4-4-4-4|
E|5-5-5-5-5-5h7-5-7-5|-------------------|
  se a alojado...

entra el puente

G|-------------------|-------------------|-------------------|
D|--------------2----|--------------4----|-------------------|
A|2-2-2-2-2-2-4---4-2|4-4-4-4-4-4-7---7-4|2-2-2-2-2-2-3-2-3-2|
E|-------------------|-------------------|-------------------|
  mientras esta...    junto a el...        una joven...

G|-------------|
D|-------------|
A|------4/7-7-7|
E|1-1-1--------|
  con la que...

  [Chorus]
G|-------------------|-----------------|
D|-------------------|--------4-6/7-6h7|
A|-------------------|4-4-4-4----------|
E|5-5-5-5-5-5h7-5-7-5|-----------------|
   la luna...

G|-------------------|---------------|
D|-------------------|------------4--|
A|-------------------|4-4-4-4-4-4---4|
E|5-5-5-5-5-5h7-5-7-5|---------------|
 algunos...

G|-------------------|---------------|
D|-------------------|------------4--|
A|-------------------|4-4-4-4-4-4---4|
E|5-5-5-5-5-5h7-5-7-5|---------------|
   auuuu lobo...

G|-------------------|-------------------|
D|-------------------|-------------------|
A|-------------------|4-4-4-4-4-4-4-4-4-4|
E|5-5-5-5-5-5h7-5-7-5|-------------------|
  su nombre es...

  entra el puente
G|-------------------|-------------------|-------------------|
D|--------------2----|--------------4----|-------------------|
A|2-2-2-2-2-2-4---4-2|4-4-4-4-4-4-7---7-4|2-2-2-2-2-2-3-2-3-2|
E|-------------------|-------------------|-------------------|
aqui no se canta

G|-------------|
D|-------------|
A|------4/7-7-7|
E|1-1-1--------|

  [Chorus]
G|-------------------|-----------------|
D|-------------------|--------6/7-7-6-7|
A|-------------------|4-4-4-4----------|
E|5-5-5-5-5-5h7-5-7-5|-----------------|
  el hombre lobo...

G|-------------------|---------------|
D|-------------------|------------4--|
A|-------------------|4-4-4-4-4-4---4|
E|5-5-5-5-5-5h7-5-7-5|---------------|
  su nombre es...

G|-------------------|-----------------|
D|-------------------|--------4-6/7-6h7|
A|-------------------|4-4-4-4----------|
E|5-5-5-5-5-5h7-5-7-5|-----------------|
   la luna...

G|-------------------|-------------------|
D|-------------------|-------------------|
A|-------------------|4-4-4-4-4-4-4-4-4-4|
E|5-5-5-5-5-5h7-5-7-5|-------------------|
 a trasformado...

  puente
G|-------------------|-------------------|-------------------|
D|--------------2----|--------------4----|-------------------|
A|2-2-2-2-2-2-4---4-2|4-4-4-4-4-4-7---7-4|2-2-2-2-2-2-3-2-3-2|
E|-------------------|-------------------|-------------------|
aqui no se canta

G|-------------|
D|-------------|
A|------4/7-7-7|
E|1-1-1--------|

  [Chorus]
G|-------------------|-----------------|
D|-------------------|--------4-6/7-6h7|
A|-------------------|4-4-4-4----------|
E|5-5-5-5-5-5h7-5-7-5|-----------------|
   la luna...

G|-------------------|-------------------|
D|-------------------|-------------------|
A|-------------------|4-4-4-4-4-4-4-4-4-4|
E|5-5-5-5-5-5h7-5-7-5|-------------------|
 a trasformado...

G|-------------------|---------------|
D|-------------------|------------4--|
A|-------------------|4-4-4-4-4-4---4|
E|5-5-5-5-5-5h7-5-7-5|---------------|

G|-------------------|---------------|
D|-------------------|------------4-4|
A|-------------------|4-4-4-4-4-4----|
E|5-5-5-5-5-5h7-5-7-5|---------------|
   auuuu...

G|-------------------|-------------------|
D|-------------------|-------------------|
A|-------------------|4-4-4-4-4-4-6/7-6h7|
E|5-5-5-5-5-5h7-5-7-5|-------------------|



************************************

| h  Hammer-on
| /  Slide up

************************************
Suggest correction
Give kudos to tab author, rate the tab!
1 2 3 4 5
comments
print report bad tab
guest
You may want to rate the tab now too:
select rating
Wanna post a correction for this tab? Suggest correction