Oops, an error
Loading. Please wait.

A Lo Verde tab

99 views 1 this week
no commentswrite comment
1 2 3 4 5
2 more votes to show rating
add to favorites
×
Save as Personal and add changes to this tab that will be seen only by you. Learn more ›
×
You can save this tab as Personal to edit and correct it or add notes. All changes will be seen only by you. Learn more »
launch autoscroll
font size
0
reset
how to read this tab
guitar tuner
edit
Autoscroll
slow
fast
+/-
esc
set tempo
stop
Bueno, solo le puse la intro. Esta intro me la pasó un amigo y yo
la arreglé un poco... espero que esté bastante bien por lo menos.
Saludos a todos los Veleros

**********************************************************************
INTRO:

e|-7-5-4--4-5-7-5-4--7-------7-5-4-----4-5-7-5-7-9-
B|------------------7-7-5-4---------5-7-------------

e|-9-11-12-11-9--7-5-4-----4-5-7-5-4--7----4-5-4----
B|-------------(12)(10)(9)-----------7-7--7-----7-5-

e|----------------------
B|-5-7-5-4--4--4-5------
G|------------6----6----
D|------------------6---
A|-------------------7--
E|----------------------

***************************************************************
AKA VA UN TEMAZO

E

E-------0-----------0------
B-----0---0-------0---0----
G---1-------1---1-------1---
D-2-----------2------------
A----------------------------
E-----------------------------


A

E--------5-----------5-------
B------2---2-------2---2----
G----2-------2---2-------2---
D----------------------------
A-0------------0--------------
E-----------------------------


B

E--------2-----------2------
B------4---4-------4---4----
G----4-------4---4-------4--
D---------------------------
A-2------------2--------------
E----------------------------


Riff:

E--------0------------2-------------------------0--
B------0---0--------4---4--------0------------0----
G----1------1-----4-------4----1-------4----1------
D--2-------------------------2-------4----2-------
A-------------2--------------------2--------------
E------------------------------------------------


Intro: E A B Riff


E                            B
Voy a contarle amigo que no puede soportar
E                                A
Estar mas de cuatro días con su gente sin fumar
       E
Y que va a hacer si él es así
       B                              Riff
Si alguien lo juzga ya se puede arrepentir.


Tiene un bonito cuelgue con su vida y los demás
Pero sube la rabia cuando tiene que escuchar
Que no es así que debe ser
Que hay otra forma de empezar a envejecer


A                               E
Yo lo conozco hermano y tiene fuerza en su humildad
A                             E
Pero es capaz de todo si le cortan su verdad
A                          E
Seguro que la vida le enseño
                         B
Que hay que poner para volar


(Repite desde ?Yo lo conozco hermano??)

Y luego termina con algo así:

E, B, E, A, E, B,


E--------0------------2---------------------
B------0---0--------4---4-------------------
G----1-------1----4-------4-----------------
D--2---------------------------------------
A--------------2-----------------------------
E---------------------------------------------

E---------------------------------------0----
B-------0-------0--------0---------0----0----
G-----1------1-------1---------1--------1----
D--2------------------------------------2-----
A---------2-----------------------------2----
E-----------------4--------2------------0-----
DISFRUTENLO
Suggest correction
Creating personal tab
Creating personal tab
You can edit any tab online and save it as your Personal.

You can edit, replace or remove any tab part or add personal notes – all changes will be seen only by you.

Personal tabs can be accessed anytime from any device, even offline.
Learn more »
Give kudos to tab author, rate the tab!
1 2 3 4 5
comments
print report bad tab
guest
Wanna post a correction for this tab? Suggest correction